Song name
# A B C D E F G H I J K L M N O P Q R S T U V W X Y Z

Network - Joe Robot tab

-------------------------------------------------------------------------------
			     JOE ROBOT - The Network
-------------------------------------------------------------------------------

Tabbed by: Trey ---> IMAWANKER
Email: imawanker33@yahoo.com


Tuning: Standard - E A D G B E



Verse:
e|-------------------------------------|----------------------------------|
B|-------------------------------------|----------------------------------|
G|-------------------------------------|----------------------------------|
D|-------------------------------------|----------------------------------|
A|-7---11-5-----7---11-5---------------|-5---9-7-----5---9-7--------------|
E|-5---9--3-----5---9--3---------------|-3---7-5-----3---7-5--------------|



Chorus:
(press down on each note only when you are strumming to get the sound exact)
e|-------------------------------------|----------------------------------|
B|-------------------------------------|----------------------------------|
G|-------------------------------------|----------------------------------|
D|-4-4-4-4-7-7-7-7---------------------|-4-4-4-4-7-7-7-7------------------|
A|-2-2-2-2-5-5-5-5-5-5-5-5-5-5-5-5-----|-2-2-2-2-5-5-5-5-5-5-5-5-5-5-5-5--|
E|-----------------3-3-3-3-3-3-3-3-----|-----------------3-3-3-3-3-3-3-3--|



Outro:
(continue with the same pressing-on-note style)
e|-------------------------------------|----------------------------------|
B|-------------------------------------|----------------------------------|
G|-------------------------------------|----------------------------------|
D|-------------------------------------|----------------------------------|
A|-12-12-11-11-10-10-9-9---------------|-12-11-10-9-7-5-7---11-5----------|
E|-10-10-9--9--8--8--7-7---------------|-10-9--8--7-5-3-5---9--3----------|



===============================================================================
| /  slide up
| \  slide down
| h  hammer-on
| p  pull-off
| ~  vibrato
| +  harmonic
| x  Mute note
===============================================================================
Tap to rate this tab
# A B C D E F G H I J K L M N O P Q R S T U V W X Y Z