Song name
# A B C D E F G H I J K L M N O P Q R S T U V W X Y Z

Network - Reto tab

welll........ i tabbed this song before i became a member and i would like to edit it 
all those network fans. Nothin' Big

Guitar 1-Somewhat Distorted
Guitar 2-Slightly Distorted
Overdub-Distorted

Intro
Guitar 1
e|--------------------------------------|
B|--------------------------------------|
G|--------------------------------------|
D|--------------------------------------|
A|--------------------------------------|
E|-55555555-555555555-33333333-33333333-|


Guitar 2 (Keyboard tabbed for guitar)
e|----0-5-3-----------|
B|---2----------------|  (There are many variations of this but this is one
G|--2-----------------|  the easiest to me.)


The Verse to this song is a little difficult so if you want it easier use the fingering:
Pointer=1 Middle=2 Ring=3 Pinky=4 !this is not for lefty guitar!

Verse
Guitar 1
e|--------------------------|
B|--------------------------|
G|--------------------------|
D|--------------------------|
A|---4---5---4--------------|
E|-5---3---5---3-2-0-3------|
   3|2|1|3|3|2|2|1  |2|


After Verse

Guitar 1
e|------------------------------|
B|------------------------------| For this part you can also use power
G|------------------------------| chords or octaves but i think this sounds
D|------------------------------| most like the song.
A|------------------------------|
E|-0(x8 or more)-3(Same as 0)---|

Chorus (x4)

Guitar 1
e|--------------------------------------|
B|--------------------------------------|
G|--------------------------------------|
D|--------------------------------------|
A|--------------------------------------|
E|-55555555-55555555-33333333-33333333--|


Guitar 2 (Keyboard tabbed for guitar)
e|----0-5-3-----------|
B|---2----------------|  (There are many variations of this but this is one
G|--2-----------------|  the easiest to me.)

Verse.2
same as verse before with guitar 1 but:

Guitar 2
e|-3~~~~~~-| hold note until end of Verse(x3)
B|---------|
G|---------|

Overdub
e|------|
B|------|
G|-+5+--| this is a harmonic


Order:
Intro
Verse (x3)
After Verse (x1)
Verse (x3)
After Verse (x2)
Verse (x3)
After Verse (x2)
Chorus (x Posted Above)
Verse.2 (x3)
After Verse (x1)
Verse (x3)
After Verse (x2)
Chorus (x Posted Above)
Verse (x1)
End on 5 on the low E string

| /  slide up
| \  slide down
| h  hammer-on
| p  pull-off
| ~  vibrato
| +  harmonic
| x  Mute note
Tap to rate this tab
 
# A B C D E F G H I J K L M N O P Q R S T U V W X Y Z