Song name
# A B C D E F G H I J K L M N O P Q R S T U V W X Y Z

Network - Hammer Of The Gods tab

my second network tab. hope you guys like this.


Guitar 1- Slightly Distorted
Guitar 2- Slightly Distorted


Intro

Guitar 1
e|---------------------------------|
B|---------------------------------|
G|---------------------------------|
D|--7-7777-x7-7777-x7-7777-x7-7777-|
A|--7-7777-x7-7777-77-7777-77-7777-|
E|-55-5555-55-5555-55-5555-55-5555-|

Guitar 2
e|-----------------12--------------|
B|---------------------------------|
G|---------------------------------|


Verse

Guitar 1
e|------------------------------------|
B|------------------------------------|
G|----------555-----------------------|
D|-x7-------555-------22-----2222-----|
A|-x7-------333-------22-----2222-----|
E|-55-----------------00-----0000-----|

Guitar 2
e|-------------------------------------|
B|-------------------------------------|
G|-------------------------------------|
D|-------------------------------------|
A|-------------------------------------|
E|-55555555/888888888\00000000000000000|

Chorus

Guitar 1
e|------------------------------------|
B|------------------------------------|
G|----------55555---------------------|
D|-33333333-55555-5-77777777-77777777-|
A|-33333333-33333-5-77777777-77777777-|
E|-11111111-------3-55555555-55555555-|

Guitar 2
e|------------------------------------| I know i only put 4 tens with 8 
B|------------------------------------| 8s but play the 10 with all of 
G|-10101010-99999-7-99999999-99999999-| the octaves with the 8 on A string.
D|-xxxxxxxx-xxxxx-x-xxxxxxxx-xxxxxxxx-| (Sorry if thats confusing)
A|-88888888-77777-5-77777777-77777777-|
E|------------------------------------|

Bridge

e|-----------------|
B|-----------------|
G|-----------------|
D|-77xx77xx77xx3-2-|
A|-77xx77xx77xx3-2-|
E|-55xx55xx55xx1-0-|

Ending

Guitar 1
e|---------|
B|---------|
G|---------|
D|-x7-7777-|
A|-x7-7777-|
E|-x5-5555-|

e|----------------|
B|----------------|
G|-----------5----|
D|---------3-5-77-|
A|---------3-3-77-|
E|---------1---55-|

Order

Intro 
Verse x4
Chorus x2
Verse x4
Chorus x4
Bridge x8
Chorus x5
Ending

| /  slide up
| \  slide down
| h  hammer-on
| p  pull-off
| ~  vibrato
| +  harmonic
| x  Mute note



Tap to rate this tab
# A B C D E F G H I J K L M N O P Q R S T U V W X Y Z