Guitaretab - guitar tabs
Song name
# A B C D E F G H I J K L M N O P Q R S T U V W X Y Z

Network - Hungry Hungry Models tab

I'm not sure if it's actually guitar playing these parts, but it sounds half-normal to 
so here ya go.

Intro
e------------------------------------------------|
B------------------------------------------------|
G------------------------------------------------|
D------------------------------------------------|    2 times
A---------------3-5------------------------------|
E𧈈𤃐𧈁------------------------------------|
[ Tab from: http://www.guitaretab.com/n/network/98750.html ]
Verse
e------------------------------------------------|
B------------------------------------------------|
G------------------------------------------------|
D------------------------------------------------|
A7-----3-----7----------------------------------|
E5-----1-----5----------------------------------|

Outro
e------------------------------------------------|
B------------------------------------------------|
G------------------------------------------------|
D------------------------------------------------|    2 times
A----------------3-5-----------------------------|
E𧈈𤃐𧈁------------------------------------|
Related for Hungry Hungry Models tab