Song name
# A B C D E F G H I J K L M N O P Q R S T U V W X Y Z

Neu - Hero tab

Song: Hero
Artist: Neu!
Album: Neu! 75
Tabbed by: Hannes Fors

----------------------------------------------------------------------------------------------------

This song has two guitarS: one with a with light distortion, and one with distortion, reverb and
perhaps some other effects as well. The first guitar has a capo on the second fret and plays chords. 
The second guitar plays short fills, drones, and occasionaly plays along with the first guitar.
I will write the tabs for both guitars relative to the capo, though I don't know if the second
guitar actually uses one. 


-----Intro------------------------------------------------------------------------------------------

Guitar 1 plays this two times:


E|--2---2-2-2-2-2-3------|
B|--3---3-3-3-3-3-3------|
G|--2---2-2-2-2-2-2------|
D|--0---0-0-0-0-0-0------|
A|-----------------------|
E|-----------------------|

It then plays a palm muted Am chord. Guitar 2 plays this over the Am:

E|---------------------------------|
B|---------------------------------|
G|---------------------------------|
D|-0-------5-------7-------9-------|
A|---------------------------------|
E|---------------------------------|

This is also played right before the bridge starts.


-----Main riff--------------------------------------------------------------------------------------

The main riff is very simple. Guitar 1 simply plays four bars of Am, followed by 4 bars of D.
The D is occasionally played like in the intro. Guitar 2 simply plays droning notes and some
short, improvised solos. The scale used is A pentatonic minor. 

This goes on for the rest of the song, except for this short bridge, which is played three times 
before the outro:

E|-----------------------------------|
B|--1-1-1-1-1-1-1-1-1-1-1-1-1-1-1-1--|
G|--0-0-0-0-0-0-0-0-2-2-2-2-2-2-2-2--|
D|--2-2-2-2-2-2-2-2-2-2-2-2-2-2-2-2--|
A|--3-3-3-3-3-3-3-3-0-0-0-0-0-0-0-0--|
E|-----------------------------------|

For the outro, just keep playing Am.


----------------------------------------------------------------------------------------------------
Tap to rate this tab
# A B C D E F G H I J K L M N O P Q R S T U V W X Y Z