Song name
# A B C D E F G H I J K L M N O P Q R S T U V W X Y Z

Neu - Hallogallo tab

Song: Hallogallo
Artist: Neu!
Album: Neu!
Tabbed by: Hannes Fors

------------------------------------------------------------------------------------------------

This is the bass riff, which is played throughout the entire song. Guitar 1 plays the same thing, 
but with power chords:

E|----------------------------------|
B|----------------------------------|
G|----------------------------------|
D|----------------------------------|
A|--7-7-7-X-7-7-7-X-7-7-7-7--7-7-7--|
E|----------------------------------|

Variation:

E|----------------------------------|
B|----------------------------------|
G|----------------------------------|
D|----------------------------------|
A|--5-7-7-X-5-7-7-X-5-7-7-7--7-7-7--|
E|----------------------------------|

Guitar 2 plays this riff a few times throughout the song:

E|----------------------------------|
B|----------------------------------|
G|------11-11------------9-9--------|
D|--7-9--------------7-9------------|
A|----------------------------------|
E|----------------------------------|

These parts are pretty much all there is to the song. The rest is just droning notes with volume 
swells, which is untabbable.


------------------------------------------------------------------------------------------------
Tap to rate this tab
# A B C D E F G H I J K L M N O P Q R S T U V W X Y Z