Song name
# A B C D E F G H I J K L M N O P Q R S T U V W X Y Z

Neumis Rock Circus - Der Clown tab

-----------------------------------------------------------------------
                             DER CLOWN - NEUMIS ROCK CIRCUS (INTRO)
-----------------------------------------------------------------------
Tabbed by: JW
E-mail: basis2000@emailn.de

Tuning: Standard

e---------------------------------------------------------------------|
B----------------------15---------------------------------------------|
G----12-14-14b16-16-14----14-12---------------------------------------|
D-12------------------------------------------------------------------|
A---------------------------------------------------------------------|
E---------------------------------------------------------------------|

e---------------------------------------------------------------------|
B----------------------17b19-17-15-15-17-18-19------------------------|
G----12-14-14b16-16-14------------------------------------------------|
D-12------------------------------------------------------------------|
A---------------------------------------------------------------------|
E---------------------------------------------------------------------|

e-17b19-17-15-15h17p15\14-14h15p14s12-12b14-12-10---------------------|
B---------------------------------------------------------------------|
G---------------------------------------------------------------------|
D---------------------------------------------------------------------|
A---------------------------------------------------------------------|
E---------------------------------------------------------------------|

e-10----------10------------------------------------------------------|
B----13-13-12----12---------------------------------------------------|
G-------------------12-12b14-11-12------------------------------------|
D---------------------------------------------------------------------|
A---------------------------------------------------------------------|
E---------------------------------------------------------------------|


***********************************************************************

| /   slide up
| \   slide down
| h   hammer-on
| p   pull-off
| ~   vibrato
| +   harmonic
| x   Mute note
| b   Bend
| pb  Pre-bend
| br  Bend release
| pbr Pre-bend release
| brb Bend release bend

***********************************************************************
Tap to rate this tab
 
# A B C D E F G H I J K L M N O P Q R S T U V W X Y Z