Guitaretab - guitar tabs
Song name
# A B C D E F G H I J K L M N O P Q R S T U V W X Y Z

Neuro Fuzzy - Kevin Is Hot Like The Sun tab

Intro

e---0-0-0-------0----6----7-7-7---------------------
B---------5-3-7----4----2---------5---7------7------
G-------------------------------8---4---6-6-7--5-2-0
D---------------------------------------------------
A---------------------------------------------------
E---------------------------------------------------

Verse 

e--------------------------------------------------
B--------------------------------------------------
G--------------------------------------------------
D-4-4-4-0-0-0-5-5-5-----4-4-4-0-0-0----------------  (Palm muted)
A------------------0-0-0-----------4-4-4-----------
E--------------------------------------------------
[ Tab from: http://www.guitaretab.com/n/neuro-fuzzy/30400.html ]
e--------------------------------------------------
B--------------------------------------------------
G--------------------------------------------------
D--------------------------------------------------
A-0-0-0-0-0-0-6-6-6-6-6-6-2-2-2-2-2-2-2-7-7-7-7-7-7 (Palm Muted)
E--------------------------------------------------

Chorus

e--------------------------------------------------
B--------------------------------------------------
G----------5-5-5-5---------------------------------
D-5-5-5-5--5-5-5-5--2-2-2-2------------------------
A-5-5-5-5--3-3-3-3--2-2-2-2------------------------  Repeat 8x
E-3-3-3-3-----------1-1-1-1------------------------

Solo

e-----------------------------------------------------
B-----------------------------------------------------
G-5-h6-4-4-7-7-------9-3-6/1-2b-------------15-12-10/1
D--------------2-5-3-----------------0-4-9-6----------
A-----------------------------------------------------
E-----------------------------------------------------

Louie is crazy,word to your mother.


Related for Kevin Is Hot Like The Sun tab
×
Best way to learn
"Kevin Is Hot Like The Sun"