Song name
# A B C D E F G H I J K L M N O P Q R S T U V W X Y Z

Neurosis Inc - Se Tu Mismo tab

Band neurosis inc
song : 
Album : subversivos espirituales

tuning D

Riff 1 x 2 veces / 2 times
 
Guitarra 1 ; Guitar 1

 PM--|         PM--|              PM--|        PM--|
|----------------------------------------------------------------------|
|----------------------------------------------------------------------|
|----------------------------------------------------------------------| 
|----------------------------------------------------------------------|
|-----7h-8-7h-8-----7h-8-7h-8--8-7-----7h-8-7h-8-----7h-8-7h-8--8-7-10-|
|-0-0-----------0-0------------6-5-0-0-----------0-0------------6-5-8--|

Guitarra 2 ; Guitar 2
|----------------------------------------------------------------------|
|----------------------------------------------------------------------|
|----------------------------------------------------------------------|
|----------------------------------------------------------------------| 
|------------------------------8--7-----------------------------8-7-10-| 
|------------------------------6--5-----------------------------6-5-8--|


Riff 2 x 2 veces / 2 times

     PM--|   PM--|   PM--|   PM-----------------|    PM--|   PM--|
|-------------------------------------------------------------------------------|
|-------------------------------------------------------------------------------|
|-------------------------------------------------------------------------------|
|-----------------------------------------------------------------------7-5-----|
|-8-7-----8-7-----8-7-----8-7-----8-7---7-8-7-----8-7-----8-7-----8-7-------8-7-|
|-----0-0-----0-0-----0-0-----0-0-----8-------0-0-----0-0-----0-0-----0---------|

Riff 3 (;Te crees libre) 2 veces / 2 times

      PM----------------------|     PM---------------------|     PM-------| 
|-------------------------------------------------------------------------------|
|-------------------------------------------------------------------------------|
|-------------------------------------------------------------------------------|
|-9s-8-------------------------8s-7-------------------------9s-8-----------9s-8-|
|-7s-6-------------------------6s-5-------------------------7s-6-----------7s-6-|
|------0-0-0-0-0-0-0-0-0-0-0-0------0-0-0-0-0-0-0-0-0-0-0-0------1-0-3-2-1------|

 PM---------------------|     PM---------------------|
|------------------------------------------------------------------------|
|------------------------------------------------------------------------|
|------------------------------------------------------------------------|
|-------------------------8s-7-------------------------9s-8----8-7-------|
|-------------------------6s-5-------------------------7s-6----6-5-8-7-9-|
|-0-0-0-0-0-0-0-0-0-0-0-0------0-0-0-0-0-0-0-0-0-0-0-0------0------6-5-7-|


Riff 4 x 2 veces / 2 times
  
 PM---------|    PM--|   PM--|                  PM--|    PM--|   PM--|     PM------|   
|--------------------------------------------------------------------------------------|
|--------------------------------------------------------------------------------------|
|--------------------------------------------------------------------------------------|
|--------------------------------------------------------------------------------------|
|-------------6-7-----7-9-----9-10--10-9-7-9-7-6-----6-7------7-9-----9-10--10-9-10-7b-|
|-0-0-0-0-0-0-----0-0-----0-0--------------------0-0------0-0-----0-0------------------|

                                                                         
 PM-------|
                                                           
  segunda vez / second time
                                                                          
|-----------|                                                                         
|-----------|                                                                          
|-----------|                                                                          
|-----------|                                                                         
|---------2-|                                                                        
|-3-2-3-2-0-|


Riff 5  x 2 veces / 2 times

 Guitarra 1 ; Guitar 1

   PM-----|   PM-----|  PM--|  PM--|  PM-|  PM--|  PM--|  PM------|  PM--| PM--|  PM--|
|--------------------------------------------------------------------------------------|
|--------------------------------------------------------------------------------------|
|--------------------------------------------------------------------------------------|
|-9--------------------9------------9------------10----------------10-----------10-----|
|-7--------10----------7-----10-----7-----10-----8-----11----------8-----11-----8------|
|---0-0-0-0-8--0-0-0-0---0-0-8--0-0---0-0-8--0-0----0—0-9--0-0-0-0---0-0-9--0-0----0-0-|

PM--|
--------|
--------|
--------|
--------|
-11-----|
-9--0-0-|


Guitarra 2 ; Guitar 2  x 2 veces / x 2 times
|-------------------------------------------------------------------------------------|
|-------------------------------------------------------------------------------------|
|-------------------------------------------------------------------------------------|
|-------------------------------------------------------------------------------------|
|-(2)--------------------------------------------(3)----------------------------------|
|-(0)--------------------------------------------(1)----------------------------------|


Riff 6 x 2 veces / 2 times

|----------------------------------------------|
|----------------------------------------------|
|----------------------------------------------|
|-9-------9------9------10-------11------11----|
|-7--10---7--10--7--10--8---11---8---11--8--11-|
|----8-------8------8-------9--------9------9--|


Riff 7  x 1 vez / once (no hammer on!)

Guitarra 1; Guitar 1

 PM------|             PM-----|             PM-----|             PM---------|
|------------------------------------------------------------------------------------|
|------------------------------------------------------------------------------------|
|------------------------------------------------------------------------------------|
|-------------------10-------------------10-------------------10-------------7-6-----|
|---------7-8-7-8-7------------7-8-7-8-7------------7-8-7-8-7--------------------8-7-|
|-0-0-0-0--------------0-0-0-0--------------0-0-0-0--------------0-0-0-0-0-0---------|


Guitarra 2 ; Guitar 2 (primera vez /first time)
|----------------------------------------------------------|
|----------------------------------------------------------|
|----------------------------------------------------------|
|--------------------------------------------------7-6-----|
|------------------------------------------------------8-7-|
|----------------------------------------------------------|

Guitarra 2 ; Guitar 2
|-----------------------------------------------------------------|
|-----------------------------------------------------------------|
|-----------------------------------------------------------------|
|---------------------------------------------------------7-6-----|
|-2---------------------2-------------------2-----------------8-7-|
|-0---------------------0-------------------0---------------------|

Riff 8  x 1 vez / once
|------------------------------------------------------|
|------------------------------------------------------|
|------------------------------------------------------|
|-7-6--------7-6--------7-6------------7-6-------7-6---|
|-----8-(7b)-----8-(5b)-----8-7h-8-(7)-----8-(5)-----8-|
|------------------------------------------------------|

Riff 9 x 10 veces / 10 times
   
|---------------------------------------------|
|---------------------------------------------|
|---------------------------------------------|
|-------7b-7b-7b------------7b-7b-7b----------|
|-------8b-8b-8b-(2)--------8b-8b-8b-2-3-(2b)-|
|-0-0-0----------(0)--0-0-0-------------------|
Tap to rate this tab
 
# A B C D E F G H I J K L M N O P Q R S T U V W X Y Z