Guitaretab - guitar tabs
Song name
# A B C D E F G H I J K L M N O P Q R S T U V W X Y Z

Neurosis - Shelter tab

Intro part 1 (slightly arrpegiated)
|-------------------------------------|
|---------0----(0)--------------------|
|---------5----(5)--------------------|
|---------7----(7)--------------------|
|---------0----(0)--------------------|
|-------------------------------------|

Intro part 2 (follows part one after much repeating) (slightly arrpegiated)
|--------------------------|
|--------------------------|
|------------9--9--9--9----|
|5--3--2--3----------------|
|------------7--7--7--7----|
|1--1--1--1--5--5--5--5----|
[ Tab from: http://www.guitaretab.com/n/neurosis/144791.html ]
Interlude
|----------------------------------------|
|--1-------1-------1---0---1-------------|
|------2-------2----------------2--------|
|----------------------------------------|
|0---0---0---0---0---0---0---0-----------|
|----------------------------------------|

Chrous
|-------------------------------------------------|
|5---(5)------------------------------------------|
|----------4---(4)-----4b5r4--(4)----5---(5)------|
|2---(2)------------------------------------------|
|----------2---(2)-----3------(3)----3---(3)------|
|-------------------------------------------------|

Bridge
|----------------------|
|-----5--------5-------|
|2----2--------5--2----|
|2----2----3/5-5--2----|
|0----0----3/--3--0----|
|0---------1/3----0----|
Related for Shelter tab
×
Shelter