Song name
# A B C D E F G H I J K L M N O P Q R S T U V W X Y Z

Neurosis - End Of The Harvest tab

End of the Harvest - Neurosis - Times of Grace
tuning - Guitar 1 - Scott Kelly AADGBE Guitar 2 - Steve Von-Till DADGAD  

/ Guitar 1
e-5-----4\\-3-|     |-5---5-5----3---2-3--|
B-6-----5\\-4-| \   |-6---6-6----4---3-4--| \   
G-7-----6\\-5-| x4  |-7---7-7----5---4-5--| x4 
D-5-----6\\-5-| /   |-5---5-5----5---4-5--| /
A-5-----4\\-3-|     |-5---5-5----3---2-3--|
A-------------|     |---------------------|

d-------------|     |---------------------|
A-8~----7\\-6-| \   |-8---8-8----6---5-6--| \
G-7~----6\\-5-| x4  |-7---7-7----5---4-5--| x4
D-7~----6\\-5-| /   |-7---7-7----5---4-5--| /
A-------------|     |-5---5-5----3---2-3--|
D-------------|     |---------------------|
\ Guitar 2

/ Guitar 1 distortion
e-5-----5----5---3-3-3-3-2-3-|
B-6-----6----6---4-4-4-4-3-4-|
G-5-----5----5---5-5-5-5-4-5-|
D-7-----7----7---5-5-5-5-4-5-|
A----5----5----5-3-3-3-3-2-3-|
A----5----5----5-------------|

d----------------------------|
A-8-----8----8---6-6-6-6-5-6-|
G-7-----7----7---5-5-5-5-4-5-|
D-7-----7----7---5-5-5-5-4-5-|
A-5-----5----5---3-3-3-3-2-3-|
D----0~---0~---0-------------|
\ Guitar 2 distortion

/ Guitar 1
e-5//8--\1\0---/4--|
B-6//9--\2\1---/5--|           
G-7//10-\3\2---/6--|x4                  
D-5//10-\3\2---/6--|
A-5//8--\1\0---/4--|
A-5--8--\1\0---/4--|
                                Then back to the first distorted part.
d------------------|
A-8--11--2\3----7~-|
G-7--10--1\2----6~-|x4       
D-7--10--1\2----6~-|
A----8-------------|
D------------------|
\ Guitar 2
  
/ Guitar 1
e----------------\ e--------------13-----13-\
B----------------  B-----------13-----------|
G-6~--10~--10\6--  G-6~---10~---------6~----|
D----------------  D------------------------|
A----------------  A------------------------|
A----------------/ A------------------------/

d----------------\ d------------------------\
A----------------  A------------------------|
G----------------  G------------------------|
D----------------  D-7~---12~-----12\\7~----|
A----------------  A------------------------|
D----------------/ D------------------------/
\ Guitar 2

/ Guitar 1 distortion
e-5-----5-----3-3-3-3-3-3-3-3-3-3--2--3--|
B-6-----6-----4-4-4-4-4-4-4-4-4-4--3--4--|
G-5-----5-----5-5-5-5-5-5-5-5-5-5--4--5--|
D-7--7--7--7--5-5-5-5-5-5-5-5-5-5--4--5--|
A-5--5--5--5--3-3-3-3-3-3-3-3-3-3--2--3--|
A-5--5--5--5-----------------------------|

d----------------------------------------|
A-8-----8-----6-6-6-6-6-6-6-6-6-6--5--6--|
G-7-----7-----5-5-5-5-5-5-5-5-5-5--4--5--|
D-7--7--7--7--5-5-5-5-5-5-5-5-5-5--4--5--|
A-5--5--5--5--3-3-3-3-3-3-3-3-3-3--2--3--|
D-0--0--0--0-----------------------------|
\ Guitar 2 distortion

/ Guitar 1 distortion
e-5b-|    -3-|        \
B-6b-|    -4-|    
G-7b-|x22 -5-|x24       This cycle 
D-5--|    -5-|            x2
A-5--|    -3-|
A-5--|    ---|        /

d----|    ---|        \
A-8b-|    -6-|
G-7b-|x22 -5-|x24       This cycle 
D-7b-|    -5-|            x2
A-5--|    -3-|
D-0--|    ---|        /
\ Guitar 2 distortion

Lyrics:
like the walls of your stare, you will fall (within you)
succumb to the new and give way
old fields will fail (memory)
yielding crops of rocks and dust

a book lies open, its pages crumble at your touch
words breed lies (writhe)
wind feeds fire unseen

have you ever tasted the soil (destiny)
and felt your own death in your veins
shield your eyes from the moon (found them all)
as it mocks your wretched self

with fire in your heart the truth lies clear
words breed lies (writhe)
wind feeds fire unseen

bend your thoughts, unveil your soul
now drink, revive, reach, scrape and bind
Tap to rate this tab
# A B C D E F G H I J K L M N O P Q R S T U V W X Y Z