Song name
# A B C D E F G H I J K L M N O P Q R S T U V W X Y Z

Neurosis - We All Rage In Gold tab

We All Rage In Gold - Neurosis - Honor Found in Decay     
tuning- DADGBe (for one guitar)                           
                                                           
Riff 1 
e------------------------------------------------------------------------|
B-6-6-6-8-8-6-6-6-9--9--9--9--6-6-6---11-11-11-11-8-8-8-5-5-5-5-5-5-5-5--|
G-7-7-7-9-9-7-7-7-10-10-10-10-7-7-7---12-12-12-12-9-9-9-6-6-6-6-6-6-6-6--|
D-0---------------0-----------0-------0-----------------0-------0--------|
A------------------------------------------------------------------------|
D------------------------------------------------------------------------|

Riff 2
e------------------------------|-------------------------------|   \
B------------------------------|-------------------------------|    \
G-7-7-7-7-7-7-7-7-7-7-7-7-7-7-7|-5-5-5-5-5-5-5-5-5-5-5-5-5-5-5-|     \
D-7-7-7-7-7-7-7-7-7-7-7-7-7-7-7|-5-5-5-5-5-5-5-5-5-5-5-5-5-5-5-|      \ 
A-5-5-5-5-5-5-5-5-5-5-5-5-5-5-5|-3-3-3-3-3-3-3-3-3-3-3-3-3-3-3-|       \
D-0-0-0-0-0-0-0-0-0-0-0-0-0-0-0|-0-------0-----0-------0-------|        \  
  >       >     >       >        >       >     >       >
e-----------------------------------------------|                   All of  
B-----------------------------------------------|                   4 bars  
G-10-10-10-10-10-10-10-10-10-10-10-10-10-10-10--|                   count as
D-8--8--8--8--8--8--8--8--8--8--8--8--8--8--8---|                   Riff 2  
A-8--8--8--8--8--8--8--8--8--8--8--8--8--8--8---|
D-0-----------0--------0-----------0------------|
  >           >        >           >                                      /
e-----------------------------------------------|                        /
B-----------------------------------------------|                       /
G-14-14-14-14-14-14-14-14-14b14b14b14b14b14b14b-|                      / 
D-12-12-12-12-12-12-12-12-12b12b12b12b12b12b12b-|                     /
A-12-12-12-12-12-12-12-12-12b12b12b12b12b12b12b-|                    /
D-0-----------0---------------------------------|                   /
  >           >           bend up---------------|                  /

Riff 3 (quiet with no distortion)
e-----------------------------|          On the 5th time playing this riff
B-----------------------------|          they turn on distortion, so the 
G-----------------------------|          -5--6----| part is distorted the last
D-7-------5-------------------|          -5--6--0-| time it's played.
A-5-------3----------5--6-----|
D-----0--------0-----5--6---0-|

Riff 4 (like riff 3, but distorted and loud)
e--------------------------------------------|
B--------------------------------------------|
G--------------------------------------------|
D-12-----0-----10-----0-----5--6----0--------|
A-12-----0-----10-----0-----5--6----0--------|
D-12-----0-----10-----0-----5--6----0--------|

Riff 1 X4
Riff 2 X6
Riff 1 X4
Riff 3 X5
Riff 4 X12 (or more)

Lyrics
I'll walk into the water,
To wash the blood from my feet.
My path is ever holding,
My shadows claimed release.

The sky it holds my father,
The sun recalls my soul.
The reason forgotten,
Of the lessons burned in oak.

My always wanting watchers,
They laugh and slash at my mind.
The deafening redeemer,
Lays me down and feeds me time.

Death was my first companion,
It showed me life and it snuffed it out.
The vision never ending.
Of the ghosts through and out.

All the rage in gold the flower...
Pull me in to see,
The battles break me but I am given,
To the lost lord,
Within the circle of clarion's eye.
Tap to rate this tab
# A B C D E F G H I J K L M N O P Q R S T U V W X Y Z