Song name
# A B C D E F G H I J K L M N O P Q R S T U V W X Y Z

Neurosis - Stones From The Sky tab

Neurosis - Stones from the sky
==============================

Tuning: Drop D

Tabbed by Daniel S.-B.

This is my first tab, so leave a comment or mail me (entmenscht at gmail.com) your
criticism, suggestions etc. :)



Intro (clean)


     Q    E  E  E  E     Q    E  E  E  E     Q    E  E  E  E     Q    E  E  E  E   
E||-------------------|-------------------|-------------------|-------------------|
B||-------------------|-------------------|-------------------|-------------------|
G||-------------------|-------------------|-------------------|-------------------|
D||--7----7--7--7--5--|--7----7--7--7--5--|--7----7--7--7--5--|--7----7--7--7--7--|
A||-------------------|-------------------|-------------------|-------------------|
D||-------------------|-------------------|-------------------|-------------------|




Riff A (distortion, let all notes ring)

     E   E   E   E   E   E      E   H         E     E  E  E  E  E  E      E   E  E  E  E  E   3x
|---------------------------|--------------------|--------------------|-----------------------||
|---------------------------|--------------------|--------------------|-----------------------||
|*--------------------------|--------------------|--------------------|----------------------*||
|*--------------------------|--------------------|--------------------|----------------------*||
|---------------10--10--10--|--10--10------------|-----------9--9--9--|--10--10--9--9---------||
|---10--10--10--------------|----------------10--|--9--9--9-----------|----------------9--9---||


   E   E   E   E   E   E      E   H         E     E  E  E  E  E  E     E  E  E  E  E  E   
--------------------------|--------------------|--------------------|--------------------|
--------------------------|--------------------|--------------------|--------------------|
--------------------------|--------------------|--------------------|--------------------|
--------------------------|--------------------|--------------------|--------------------|
--------------10--10--10--|--10--10------------|-----------9--9--9--|--9--7--7--7--7--7--|
--10--10--10--------------|----------------10--|--9--9--9-----------|-----7--7--7--7--7--|




Riff B (distortion)

   E   E   E   E   E   E      E   E   E   E   E   E      E   E   E   E   E   E   
--------------------------|--------------------------|--------------------------|
--------------------------|--------------------------|--------------------------|
--------------------------|--------------------------|--------------------------|
--12--12--12--12--12--10--|--12--12--12--12--12--10--|--12--12--12--12--12--10--|
--12--12--12--12--12--10--|--12--12--12--12--12--10--|--12--12--12--12--12--10--|
--12--12--12--12--12--10--|--12--12--12--12--12--10--|--12--12--12--12--12--10--|


   E   E   E   E   E   E      E   E   E   E   E   E      E   E   E   E   E   E   
--------------------------|--------------------------|--------------------------|
--------------------------|--------------------------|--------------------------|
--------------------------|--------------------------|--------------------------|
--12--12--12--12--12--12--|--10--10--10--10--10--12--|--10--10--10--10--10--12--|
--12--12--12--12--12--12--|--10--10--10--10--10--12--|--10--10--10--10--10--12--|
--12--12--12--12--12--12--|--10--10--10--10--10--12--|--10--10--10--10--10--12--|


   E   E   E   E   E   E      E   E   E   E   E   E      
--------------------------|--------------------------|
--------------------------|--------------------------|
--------------------------|--------------------------|
--10--10--10--10--10--12--|--10--10--10--10--10--10--|
--10--10--10--10--10--12--|--10--10--10--10--10--10--|
--10--10--10--10--10--12--|--10--10--10--10--10--10--|




Riff C (distortion, played by a second guitar)

      H         Q        H         Q        H        Q        Q     Q     Q       H        Q     
E||------------------|------------------|-----------------|--------------------|----------------|
B||------------------|------------------|-----------------|--------------------|----------------|
G||--10--------------|------------12----|--10-------------|--------12----10----|--9-------------|
D||------------------|------------------|-----------------|--------------------|----------------|
A||------------------|------------------|-----------------|--------------------|----------------|
E||------------------|------------------|-----------------|--------------------|----------------|


   H        Q        H        Q        H        Q      
-----------------|-----------------|-----------------||
-----------------|-----------------|-----------------||
--10-------------|--12-------------|--10--------9----||
-----------------|-----------------|-----------------||
-----------------|-----------------|-----------------||
-----------------|-----------------|-----------------||



Duration Legend
---------------

H - half
Q - quarter
E - 8th



Song structure
--------------

0:06 - Intro
2:13 - Riff A
2:37 - Riff B
3:47 - Riff A
4:11 - Riff B (till the end)
5:41 - Riff C (till the end)
Tap to rate this tab
 
# A B C D E F G H I J K L M N O P Q R S T U V W X Y Z