Song name
# A B C D E F G H I J K L M N O P Q R S T U V W X Y Z

Neurosonic - I Will Always Be Your Fool Acoustic tab

This is a very good song and if you have any corrections please feel free mother F**ker's


Intro/chorus

---------------------------------------------|
---------------------------------------------|
---------------------------------------------|
-7-7-7-7-7--5-5-5-5-5-------------3-3-3-3-3--|
-7-7-7-7-7--5-5-5-5-5--5-5-5-5-5--3-3-3-3-3--|
-5-5-5-5-5--3-3-3-3-3--2-2-2-2-2--1-1-1-1-1--|

End of chorus
--------------------------------------------------------------|
--------------------------------------------------------------|
--------------------------------------------------------------|
-7-7-7-7-7--5-5-5-5-5-------------3-3-3-3-3-3-3-3-3-3-3-3-3-3-|
-7-7-7-7-7--5-5-5-5-5--5-5-5-5-5--3-3-3-3-3-3-3-3-3-3-3-3-3-3-|
-5-5-5-5-5--3-3-3-3-3--2-2-2-2-2--1-1-1-1-1-1-1-1-1-1-1-1-1-1-|

-----------------|
-----------------|
-----------------|
-5-5-5-5-5-5-5-5-|
-5-5-5-5-5-5-5-5-|
-3-3-3-3-3-3-3-3-|


Verse
-------------------2---2-2--0-0-0-0-0-|
-------------------3---3-3--0-0-0-0-0-|
----------6---6-6--2---2-2--1-1-1-1-1-|
-3---3-3--6---6-6--0---0-0--2-2-2-2-2-|
-3---3-3--4---4-4-----------2-2-2-2-2-|
-5---5-5--------------------0-0-0-0-0-|

-------------------2---2-2--0-0-0-0-0-|
-------------------3---3-3--0-0-0-0-0-|
----------6---6-6--2---2-2--1-1-1-1-1-|
-3---3-3--6---6-6--0---0-0--2-2-2-2-2-|
-3---3-3--4---4-4-----------2-2-2-2-2-|
-5---5-5--------------------0-0-0-0-0-|


-------------------2---2-2--0-0-0-0-0-|
-------------------3---3-3--0-0-0-0-0-|
----------6---6-6--2---2-2--1-1-1-1-1-|
-3---3-3--6---6-6--0---0-0--2-2-2-2-2-|
-3---3-3--4---4-4-----------2-2-2-2-2-|
-5---5-5--------------------0-0-0-0-0-|


-------------------2---2-2--0-0-0-0-0-|
-------------------3---3-3--0-0-0-0-0-|
----------6---6-6--2---2-2--1-1-1-1-1-|
-3---3-3--6---6-6--0---0-0--2-2-2-2-2-|
-3---3-3--4---4-4-----------2-2-2-2-2-|
-5---5-5--------------------0-0-0-0-0-|

-------------------2--------|
-------------------3-(hold)-|
----------6---6-6--2--------|
-3---3-3--6---6-6--0--------|
-3---3-3--4---4-4-----------|
-5---5-5--------------------|

Chorus 4 times
Then the end of chorus

Verse

Chorus 4 times
End of chours

solo
-------------------------------------------------------|
-------------------------------------------------------|
----------------------------11-12-11-11-12-11-11-12-11-|
-11-12-11-11-12-11-11-12-11----------------------------|
-------------------------------------------------------|
-------------------------------------------------------|

Thats it very easy song

email iamdisturbed@verizon.net For questions or help men if you think it is wrong

I Will Always Be Your Fool

I believe
Every word you've ever spoken
Lie to me
With every promise you have broken

Just know that I will always be
always be your fool!
I have always been
Always been your fool
I will always be
Always be your fool

I have wept
with every bruise you ever gave me
But I have kept the hope that one day
You will save me

Just know that I will always be
always be your fool!
I have always been
Always been your fool
I will always be
Always be your fool

I will always be
always be your fool!
I have always been
Always been your fool
I will always be
Always be your fool
Tap to rate this tab
# A B C D E F G H I J K L M N O P Q R S T U V W X Y Z