Guitaretab - guitar tabs
Song name
# A B C D E F G H I J K L M N O P Q R S T U V W X Y Z

Neurosonic - So Many People tab

So Many People
By Neurosonic
Tabbed by Josh Trask by handwritten tabs from the band.

This song is the best controversial song ever! It absolutely rips on Ashlee Simpson and
rightfully so. It is a ton of fun when you get the riffs down so practice and have rock
out!

Tuning: Standard A# (A# D# C# C# F# A#  low to high)

Intro and Verse

|------------------------------------------------------------------|
|------------------------------------------------------------------|
|------------------------------------------------------------------|
|2-2-2-2-2-2-2-2-2-2-2----------------------------------------|
|2-2-2-2-2-2-2-2-2-2-2----------------------------------------|
|0-0-0-0-0-0-0-0-0-0-0----------------------------------------|
  . .  . .  . .  . .  . . .   Lightly Palm Muted

Pre-Chorus
[ Tab from: http://www.guitaretab.com/n/neurosonic/91755.html ]
|------------------------------------------------------------------|
|------------------------------------------------------------------|
|-5/7-7-7---7\5---5-5------5---------------------------------------|
|5/777---7\5---5-5------5----5----------------------------------|
|-3/5-5-5---5\3---3-3------3----5----------------------------------|
|------------------------------3----------------------------------|

Chorus

|------------------------------------------------------------------|
|------------------------------------------------------------------|
|------------------------------------------------------------------|
|-2----------------------------------------------------------------|
|-2------------------/7--7--7p5p0----------------------------------|
|-0--0--3-4-5----0-----------------3-------------------------------|

Bridge

|------------------------------------------------------------------|
|------------------------------------------------------------------|
|------------------------------------------------------------------|
|-4----------------------------------------------------------------|
|-4------------------/9--9--9p7p0----------------------------------|
|-2---0--5-6-7---0-----------------5-------------------------------|


Key

. = Palm Mute
/ = Slide Up
\ = Slide Down
Related for So Many People tab