Guitaretab - guitar tabs
Song name
# A B C D E F G H I J K L M N O P Q R S T U V W X Y Z

Neurosonic - I Will Always Be Your Fool tab

This is a great song by Neurosonic and is very easy to play. This pretty much the whole 
except the verse. Hope itís easy to read because this is my first tab! Have fun!

Tuning: Drop D  |e|
                |B|
                |G|
                |D|
                |A|
                |D|


 Intro/Chorus.
|----------------------|----------------------|
|----------------------|----------------------|
|----------------------|----------------------|
|5--5--5--5--5--5--5--5|3--3--3--3--3--3--3--3|
|5--5--5--5--5--5--5--5|3--3--3--3--3--3--3--3|
|5--5--5--5--5--5--5--5|3--3--3--3--3--3--3--3|


|----------------------|----------------------|
|----------------------|----------------------|
|----------------------|----------------------|
|2--2--2--2--2--2--2--2|1--1--1--1--1--1--1--1|
|2--2--2--2--2--2--2--2|1--1--1--1--1--1--1--1|
|2--2--2--2--2--2--2--2|1--1--1--1--1--1--1--1|

[ Tab from: http://www.guitaretab.com/n/neurosonic/95623.html ]
|----------------------|----------------------|
|----------------------|----------------------|
|----------------------|----------------------|
|5--5--5--5--5--5--5--5|3--3--3--3--3--3--3--3|
|5--5--5--5--5--5--5--5|3--3--3--3--3--3--3--3|
|5--5--5--5--5--5--5--5|3--3--3--3--3--3--3--3|


|----------------------|----------------------------------------------|
|----------------------|----------------------------------------------|
|----------------------|----------------------------------------------|
|2--2--2--2--2--2--2--2|1--1--1--1--1--1--1--1--1--1--1--1--1--1--1--1|
|2--2--2--2--2--2--2--2|1--1--1--1--1--1--1--1--1--1--1--1--1--1--1--1|
|2--2--2--2--2--2--2--2|1--1--1--1--1--1--1--1--1--1--1--1--1--1--1--1|


|----------------------------------------------|
|----------------------------------------------|
|----------------------------------------------|
|3--3--3--3--3--3--3--3--3--3--3--3--3--3--3--3|
|3--3--3--3--3--3--3--3--3--3--3--3--3--3--3--3|
|3--3--3--3--3--3--3--3--3--3--3--3--3--3--3--3|
Related for I Will Always Be Your Fool tab