Song name
# A B C D E F G H I J K L M N O P Q R S T U V W X Y Z

Neurotic Outsiders - Jerk tab

Tuning: Standard EADGBe

NOTICE: I'm only tabbing what Steve Jones is doing.

Intro: Play this chord a lot of times.

  C#5
e:-------------------------------------------------------------------|
B:-------------------------------------------------------------------|
G:6------------------------------------------------------------------|
D:6------------------------------------------------------------------|
A:4------------------------------------------------------------------|
E:-------------------------------------------------------------------|

Pre-verse: Not palm-muted

  G#5   A5      F#5
e:-------------------------------------------------------------------|
B:-------------------------------------------------------------------|
G:-------------------------------------------------------------------|
D:6-6-6-7-7-7-7-4-4-4-4-4-4-4-4--------------------------------------|
A:6-6-6-7-7-7-7-4-4-4-4-4-4-4-4--------------------------------------|
E:4-4-4-5-5-5-5-2-2-2-2-2-2-2-2--------------------------------------|

Verse: This is all palm-muted.

  G#5   A5      F#5
e:-------------------------------------------------------------------|
B:-------------------------------------------------------------------|
G:-------------------------------------------------------------------|
D:6-6-6-7-7-7-7-4-4-4-4-4-4-4-4--------------------------------------|
A:6-6-6-7-7-7-7-4-4-4-4-4-4-4-4--------------------------------------|
E:4-4-4-5-5-5-5-2-2-2-2-2-2-2-2--------------------------------------|

Pre-chorus: Not palm-muted.

  G#5   A5      F#5
e:-------------------------------------------------------------------|
B:-------------------------------------------------------------------|
G:-------------------------------------------------------------------|
D:6-6-6-7-7-7-7-4-4-4-4-4-4-4-4--------------------------------------|
A:6-6-6-7-7-7-7-4-4-4-4-4-4-4-4--------------------------------------|
E:4-4-4-5-5-5-5-2-2-2-2-2-2-2-2--------------------------------------|

Chorus: Not palm-muted.

  Bb5             B5                F#5             C#5
e:-------------------------------------------------------------------|
B:-------------------------------------------------------------------|
G:3-3-3-3-3-3-3-3-4-4-4-4-4-4-4-4-------------------6-6-6-6-6-6-6-6--|
D:3-3-3-3-3-3-3-3-4-4-4-4-4-4-4-4-0-4-4-4-4-4-4-4-4-6-6-6-6-6-6-6-6--|
A:1-1-1-1-1-1-1-1-2-2-2-2-2-2-2-2-0-4-4-4-4-4-4-4-4-4-4-4-4-4-4-4-4--|
E:--------------------------------0-2-2-2-2-2-2-2-2------------------|

Repeat without intro or pre-verse.

Solo: If you can't figure this out watch this lesson: http://www.youtube.com/watch?v=JOJHXwN5O_E

e:4----4-4----4-4--5----5-5----5-5--7----7-7----7-7----7-7----7-7----7------|
B:4----4-4----4-4--5----5-5----5-5--7----7-7----7-7----7-7----7-7----7------|
G:--6b-----6b--------7b-----7b--------9b-----9b-----9b-----9b-----9b--------|
D:--------------------------------------------------------------------------|
A:--------------------------------------------------------------------------|
E:--------------------------------------------------------------------------|

e:4----4-4----4-4--5----5-5----5-5------------------------------------------|
B:4----4-4----4-4--5----5-5----5-5------9-9-9-10/12-12-----13---------------|
G:--6b-----6b--------7b-----7b----------9-9-9-11/13-13b14r-12-/17\----------|
D:---------------------------------9-11-------------------------------------|
A:--------------------------------------------------------------------------|
E:--------------------------------------------------------------------------|

e:4----4-4----4-4--5----5-5----5-5--7----7-7----7-7----7-7----7-7----7------|
B:4----4-4----4-4--5----5-5----5-5--7----7-7----7-7----7-7----7-7----7------|
G:--6b-----6b--------7b-----7b--------9b-----9b-----9b-----9b-----9b--------|
D:--------------------------------------------------------------------------|
A:--------------------------------------------------------------------------|
E:--------------------------------------------------------------------------|

e:4------4-4----4-4--5----5-5----5-5----------------------------------------|
B:--4----4-4----4-4--5----5-5----5-5----------------------------------------|
G:----6b-----6b--------7b-----7b-----4/6v~~---------------------------------|
D:--------------------------------------------------------------------------|
A:--------------------------------------------------------------------------|
E:--------------------------------------------------------------------------|

Then play:

Verse

Pre-chorus

Chorus

Now play the intro chord a lot of times.

Final chord:
    F#5
e:-----|
B:-----|
G:-----|
D:--4--|
A:--4--|
E:--2--|
Tap to rate this tab
# A B C D E F G H I J K L M N O P Q R S T U V W X Y Z