Song name
# A B C D E F G H I J K L M N O P Q R S T U V W X Y Z

Neutral Milk Hotel - Aeroplane Over The Sea tab

-------------------------------------------------------------------------------
			     IN THE AEROPLANE OVER THE SEA (TRUMPET SOLO) - Neutral Milk Hotel
-------------------------------------------------------------------------------
Tabbed by: BluesLP1990
Email: jjudson@g.clemson.edu

This is intended to be the Trumpet solo from 'In the Aeroplane Over the Sea.' I haven't 
the rest of the song because the other tabs on this site already cover the chords very 
I feel like the Trumpet solo is a lot of fun though and adds a lot to any cover.

The solo starts around 1:11 and goes through about 1:26 over the chords Em-C-G-D, which 
included, along with the bass notes just for fun. It's pretty easy to figure out, but 
it is for anyone that's having trouble or wants to compare. Enjoy!

Tuning: Standard

   Em          C           G           D
e|-------------------------------------------------|
B|-3-------1-0-------------5-3---0-----------------|
G|-------------2-----0---------------0-2-----5-----|
D|------------------------------------(0)----------|
A|------------(3)----------------------------------|
E|(0)---------------------(3)----------------------|

   Em          C           G            D
e|-------------------------------------------------|
B|-------------------------3---3-3-5-0-1h3~~~~~~~~~|
G|-----4-4-2-0-------------------------------------|
D|-------------4b5r4-2-----------------(0)---------|
A|------------(3)----------------------------------|
E|(0)---------------------(3)----------------------|
Tap to rate this tab
# A B C D E F G H I J K L M N O P Q R S T U V W X Y Z