Neutral Milk Hotel - Untitled tab

First 3 are tuned diffrently,tune slowly be ear with song for last three strings
   last 3 are regular,the song sounds the same with "Distortion"sort of

 E|-------------------------------------------------|
 B|-------------------------------------------------|
 G--------------------------------------------------|INTRO(-Distortion
D#|---------0-1-0-----------------------------------|
Bb|------(0)------2-0-------------------------------|
b#|--(0)let-ring-for-9-seconds----------------------|

 E|-------------------7--9--11-11-12--12--11---------|
 B|-----7---9-9--7--9--------------------------------|
 G|--9--------------------------------------- Solo(--|
D#|--------------------------------------------------|
Bb|--------------------------------------------------|
b#|--------------------------------------------------|


 E|----9--7----------------7----7-------9--7--|
 B|----------9--7---7--9------9---9--7--------|
 G|---------------9-------9-------------------|
D#|-------------------------------------------|
Bb|-------------------------------------------|
b#|-------------------------------------------|
             26 seconds of untitled

                 Part.1
Ill finish this if i actually did this right so comment this...
let me know if its any good.
Tap to rate this tab
 
# A B C D E F G H I J K L M N O P Q R S T U V W X Y Z