Song name
# A B C D E F G H I J K L M N O P Q R S T U V W X Y Z

Neutral Milk Hotel - Communist Daughter tab

This is the trumpet part which is played at the end

e|---7-10-8-7-8-10-8-7----|----7-8-7----7-8-7------|
B|-8-------------------10-|-10-------10-------10-8-|
G|------------------------|------------------------|
D|------------------------|------------------------|
A|------------------------|------------------------|
E|------------------------|------------------------|

e|------8-7----7-8-7------|------8-7----7-8-7-8-10-|
B|-8-10-----10-------10-8-|-8-10-----10------------|
G|------------------------|------------------------|
D|------------------------|------------------------|
A|------------------------|------------------------|
E|------------------------|------------------------|
Tap to rate this tab
# A B C D E F G H I J K L M N O P Q R S T U V W X Y Z