Song name
# A B C D E F G H I J K L M N O P Q R S T U V W X Y Z

Neutral Milk Hotel - Song Against Sex tab

Artist: Neutral Milk Hotel
-Album: On Avery Island
--Song: Song Against Sex
---Tab: #3

Transcribed by Exo M7.

For questions/comments/tab requests, the email is jd0922@yahoo.com.

~~~~~~

Verse 1

Bb
Bb
F
Bb
F
Bb
F
Bb
F
Bb

~~~~~~

Bridge 1

     F		           	 Bb
1st:-------------------------------------------------|
2nd:-------------------------------------------------|
3rd:-------------------------------------------------|
4th:----------7-----------7--8-7-8------8-7-8--------|
5th:-8/6--6-8----8/6--6-8----------8-5--------8-5/1--|
6th:-------------------------------------------------|
("/" is a slide, to better imitate the horn sound.)

~~~~~~

Verse 2

Bb
F
Bb
F
Bb
Bb
F
Bb
F
Bb

~~~~~~

Bridge 2

(Played with bridge 1 in background)

    F		       Bb
1st:----------------------------------------|
2nd:----------------------------------------|
3rd:----------------------------------------|
4th:-7-/5------7-/5-------------------------|
5th:-------8---------8---8-/6-/5---8-/6-/5--|
6th:----------------------------------------|

    F	               Bb
1st:----------------------------------------|
2nd:----------------------------------------|
3rd:----------------------------------------|
4th:-7-/5------7-/5-------------------------|
5th:-------8---------8---8-/6-/5---5-/3-/1--|
6th:----------------------------------------|

~~~~~~

Verse 3

Bb
Bb
F
Bb
F
Bb
F
Bb

~~~~~~

Ending

1st:------------------------------------------|
2nd:------------------------------------------|
3rd:------------------------------------------|
4th:-7-/5-/7----------------------------------|
5th:---------8--8-/6-/8/5-/8-/6-/5---5-/3-/1--|
6th:------------------------------------------|x2

~~~~~~
Tap to rate this tab
# A B C D E F G H I J K L M N O P Q R S T U V W X Y Z