Song name
# A B C D E F G H I J K L M N O P Q R S T U V W X Y Z

Neutral Milk Hotel - Sweet Marie tab

Help us improve GuitareTab! Take a short survey!
Tabbed by Dan Anderson
Email: Destroy_toymachine@msn.com
This is pretty darn close, give it shot, and you'll see right away

Neutral Milk Hotel-Sweet Marie


-------------------------------------|-------------------------------------|
-------------------------------------|-------------------------------------|
-------------------------------------|-------------------------------------|
--11--12141211--------------------|-------11121416-17-19-------------|
12----------------12-10-10-10-12-----|--12---------------------------------|
-------------------------------------|-------------------------------------|



-----------------------------------------------------------|
-----------------------------------------------------------|
-----------------------------------------------------------|
--19-19-19--17-17-1716-16-1614-14-14--------------------|
-----------------------------------------------------------|
-----------------------------------------------------------|


---------------------------|----------------------------------|
---------------------------|----------------------------------|
---------------------------|----------------------------------|
-12---12-12-14-16-14--11--|----------------------------------|
---------------------------|-----1210---10-10-12-------------|
---------------------------|----------------------------------|

--------------|
--------------|
--------------|
--------------|
--7~----------| 
Related for Sweet Marie tab