Guitaretab - guitar tabs
Song name
# A B C D E F G H I J K L M N O P Q R S T U V W X Y Z

Neva Dinova - Ive Got A Feeling tab

Iíve got a feeling


Intro and Chorus (played nearly all time)

_____A_______D

e---0--0-----2-2-2-2---2-2-2-2-2-|
B---2--2-----3-3-3-3---3-3-3-3-3-|
G---2--2-----2-2-2-2---2-2-2-2-2-|
D---2--2-----0-0-0-0---0-0-0-0-0-|
A---0--0-------------------------|
E--------------------------------|

Bridge 1

___A______E________G________D
[ Tab from: http://www.guitaretab.com/n/neva-dinova/141046.html ]
e--0------0--------3---------2---------|
B--2------0--------3---------3-mute----|
G--2-(1T)-1--------0---------2-(2/4T)--|
D--2------2-(1/4T)-0-(1/4T)--0---------|
A--0------2--------2-------------------|
Eó--------0--------3-------------------|

(1:40, 2:12, 2:57, 3:41, 4:39)


Bridge 2

E(1T)_____G(1T)_____D(1T)+(1/4)___Break(1T+3/4T)

e--------------------------2-x-------|
B--------------------------3-x-------|
G--------------------------2-x-------|
D--------------------------0-x-------|
A------------------------------------|
Eó-----------------------------------|

(3:52, 4:50)
Related for Ive Got A Feeling tab