Song name
# A B C D E F G H I J K L M N O P Q R S T U V W X Y Z

Neva Dinova - Get Back tab

Demi Lovato - Get Back (Album Version)
--------------------------------------

This tab should be 100% correct and it covers the whole song perfectly.
I didn't figure out the solo but it seems to be some Am-pentatonic stuff..
The timestamps refer to the album version of this song.



### INTRO + VERSE ### 00:00 ###
e|------------|           |----------------------|
B|------------|           |----------------------|
G|-------4-5--| 6x        |--12-12-12-12---------| 6x
D|--5555-4-5--|      OR   |--12-12-12-12--9--10--|
A|--5555-2-3--|           |--10-10-10-10--9--10--|
E|--3333------|           |---------------7--8---|


### PRE-CHORUS ### 00:19 ###
e|---------------------------|------------------------------| /  (-Strumming Pattern-)
B|---------------------------|------------------------------| /  (                   )
G|--10-----------------------|--10--------------------------| /  (------5-----5------)
D|--10-(8x)-10------5--------|--10-(8x)-10------12------12--| /  (------5-----5------)
A|--8-------10-(8x)-5-(16x)--|--8-------10-(8x)-12-(8x)-12--| /  (--3-3-3-3-3-3-3-3--)
E|----------8-------3--------|----------8-------10------10--| /  (  . .   . .   . .  )


### CHORUS ### 00:31 ###
e|-------------------------|    |--------------|
B|-------------------------|    |--------------|
G|----------------5--------| 3x |--8------10\--|
D|--5------3------5-(16x)--|    |--8-(8x)-10\--|
A|--5-(8x)-3-(8x)-3--------|    |--6------8\---|
E|--3------1---------------|    |--------------|


### VERSE ### 00:53 ###
e|------------|    |-----------------|
B|------------|    |-----------------|
G|-------4-5--| 5x |-------4-5-------| last eight notes
D|--5555-4-5--|    |--5555-4-5-(8x)--| palm muted
A|--5555-2-3--|    |--5555-2-3-------|
E|--3333------|    |--3333-----------|


### PRE-CHORUS ### 01:12 ###
e|---------------------------|---------------------------(N.H.)--|
B|---------------------------|-----------------------------55----|
G|--10-----------------------|--10---------------------------55--|
D|--10-(8x)-10------5--------|--10-(8x)-10------12-------55------|
A|--8-------10-(8x)-5-(16x)--|--8-------10-(8x)-12-(9x)----------|
E|----------8-------3--------|----------8-------10---------------|


### CHORUS ### 01:25 ###
e|-------------------------|    |--------------|
B|-------------------------|    |--------------|
G|----------------5--------| 3x |--8------10\--|
D|--5------3------5-(16x)--|    |--8-(8x)-10\--|
A|--5-(8x)-3-(8x)-3--------|    |--6------8\---|
E|--3------1---------------|    |--------------|


### SOLO ### 01:47 ###
e|-----------------------------|
B|-----------------------------|
G|---------------2--0--2br--0--| 2x
D|---------2--3----------------|
A|-----2--3--------------------|
E|--3--------------------------|


### BRIDGE ### 01:53 ###
e|-------------------|--------------------------|-------------------|------------|
B|-------------------|--------------------------|-------------------|------------|
G|---------4-5-------|---------4-5--------------|---------4-5-------|---------5--| all palm muted,
D|--5------4-5-(8x)--|--5------4-5-(5x)-3-------|--5------4-5-(8x)--|--5------5--| except last one
A|--5-(6x)-2-3-------|--5-(6x)-2-3------3-(4x)--|--5-(6x)-2-3-------|--5-(7x)-3--|
E|--3----------------|--3---------------1-------|--3----------------|--3---------|


### SCREAMING PART ### 02:06 ###
e|-------------------|--------------------------|-------------------|-----------|
B|-------------------|--------------------------|-------------------|-----------|
G|---------4-5-------|---------4-5--------------|---------4-5-------|--7--------|
D|--5------4-5-(8x)--|--5------4-5-(4x)-3-------|--5------4-5-(8x)--|--7-(16x)--|
A|--5-(6x)-2-3-------|--5-(5x)-2-3------3-(4x)--|--5-(5x)-2-3-------|--5--------|
E|--3----------------|--3---------------1-------|--3----------------|-----------|


### INTERLUDE ### 02:19 ###
e|-------------------------|----------------------------|
B|-------------------------|----------------------------|
G|----------------5--------|----------------5------5-5--| all palm muted,
D|--5------3------5-(16x)--|--5------3------5-(8x)-5-5--| except last two
A|--5-(8x)-3-(8x)-3--------|--5-(8x)-3-(8x)-3------3-3--|
E|--3------1---------------|--3------1------------------|

e|----------------|--------------------------|
B|----------------|--------------------------|
G|-(2 bars break)-|--5-------8------10-------|
D|----------------|--5-(16x)-8-(8x)-10-(8x)--|
A|----------------|--3-------6------8--------|
E|----------------|--------------------------|


### LAST CHORUS (SOLO) ### 02:41 ###
e|-------------------------|    |------------------|
B|-------------------------|    |------------------|
G|----------------5--------| 3x |--8------10-------| 2x
D|--5------3------5-(16x)--|    |--8-(8x)-10-(8x)--|
A|--5-(8x)-3-(8x)-3--------|    |--6------8--------|
E|--3------1---------------|    |------------------|


### ENDING ### 03:06 ###
e|-------|--------|--------------------|
B|-------|--------|--------------------|
G|--8----|--10----|--------------------|
D|--8----|--10----|--5-5---(drums)--5--|
A|--6----|--8-----|--5-5------------5--|
E|-------|--------|--3-3------------3--|
Tap to rate this tab
# A B C D E F G H I J K L M N O P Q R S T U V W X Y Z