Song name
# A B C D E F G H I J K L M N O P Q R S T U V W X Y Z

Neva Dinova - Its Worse When Youre Young tab

----------------------------------------------------------------------------
                 Its Worse When You're Young - Neva Dinova
----------------------------------------------------------------------------

Tabbed by: Yoshima
Email: derby@fsmail.net

Tuning: Standard

Note: Lyrics with the chords are at the bottom of the page...

The three harmonising guitar parts made this quite difficult to tab.
Have tried to show where each part fits over the other.
Actually listen to the song for timing because it doesn't quite match up.

>>>>>>>>>>>>>>>>>>>>>>>>>>>>>>>>>>>>>>>>>>>>>>>>>>>>>>>>>>>>>>>>>>>>>>>>>>>>

>>>Intro

Guitar 1;Clean the is repeated until the chorus....

e|--5-5-5-5-5-5------------------------------------------------------------|
B|--7-7-7-8-8-8-10-10--5-5-5-5-5-5-7-7--3-3-3-3-3-3-5-5--3-3-3-3-3-3-5-5---|
G|---------------9--9--6-6-6-7-7-7-9-9--4-4-4-6-6-6-7-7--4-4-4-6-6-6-7-7---|
D|-------------------------------------------------------------------------|
A|-------------------------------------------------------------------------|
E|-------------------------------------------------------------------------|

Guitar 2; 0:10 ....Distortion; volume swell in
e|--------------------------------------------------------------------------|
B|-----------------------------------------------------------------15--15---|
G|9b11r9-7-9b11r9-7-9b11r9-6-7-6-------9b11r9-7-9b11r9-7-9b11r9-/16--16--16-|
D|-------------------------------9-7-9--------------------------------------|
A|--------------------------------------------------------------------------|
E|--------------------------------------------------------------------------|

Guitar 3; 0:10 ...Distortion; volume swell in
e|--------------------------------------------------------------------------|
B|---------------------------------------------------------15--15--17--17-15|
G|-(9)--------------------------------------------------/16--16--16--16-----|
D|-----------------------11-12-11-------------------------------------------|
A|--------------------------------14-12-14~---------------------------------|
E|--------------------------------------------------------------------------|

Guitar 3 is really just reinforcing the guitar 2 part, can't get the part
to match up under but its obvious when each note is played. The guitar 3 part shown is 
the last time through.


>>>>>>>>>>>>>>>>>>>>>>>>>>>>>>>>>>>>>>>>>>>>>>>>>>>>>>>>>>>>>>>>>>>>>>>>>>>>

>>>Verse; 0:30

Guitar 1; same as intro ^


Guitar 2;Clean;less complicated than it looks, just picked bar chords
>>>The pattern of picking is the main thing...
e|----------------------------------------------------------------|
B|---7----7---------5----5---------7-----7---------3----3---------|
G|-----7----7---7-----6----6---6-----7-----7---7-----4----4---4---|
D|------------7--------------7---------------9--------------5-----|
A|-5-----5--------------------------------------------------------|
E|----------------5-----5--------7-----7---------3----3-----------|


Guitar 3; Clean; strumming chords...
e|--2-------------0--------------2--------------------------------|
B|--3-------------2--------------3---------------3----------------|
G|--2-------------2--------------4---------------0----------------|
D|--0-------------2--------------4---------------0----------------|
A|----------------0--------------2---------------2----------------|
E|-------------------------------2---------------3----------------|
....She wakes up.........

^^^Repeat parts^^^

then; 0:50

Guitar 1;
e|----------------------|
B|--7-7-7-8-8-8-10-10---|
G|--9-9-9-9-9-9-9--9----|
D|----------------------|
A|----------------------|
E|----------------------|

Guitar 2;
e|--------------------|
B|----3------3--------|
G|------4------4---4--|
D|---------------5----|
A|--------------------|
E|--3------3----------|

Guitar 3;

e|-----|
B|--2--|
G|--0--|
D|--0--|
A|--2--|
E|--3--|

>>>>>>>>>>>>>>>>>>>>>>>>>>>>>>>>>>>>>>>>>>>>>>>>>>>>>>>>>>>>>>>>>>>>>>>>>>>

then; 0:53

>>>Chorus

When it comes to chord strumming listen to the song for the rhythm....

Guitar 1; Distortion; Fuzz;
e|-----------------------------------------------------------------------|
B|---------------------------------------------------------3-------------|
G|---------------------------------------------------------0-------------|
D|--/7------------7/9\2-------------2/4-0------------------0-------------|
A|--/5------------5---0-------------0---2------------------2-------------|
E|--------------------------------------3------------------3-------------|

Guitar 2; Distortion; Fuzz;
e|-----------------------------------------------------------------------|
B|--10-------------------------------------------------------------------|
G|--11----------------------------14-12-11----------11------11-11--7-----|
D|----------------------------------------12--12/14---12-9--12-12--5-----|
A|-----------------------------------------------------------------------|
E|-----------------------------------------------------------------------|


Guitar 3; Heavy Distortion; Fuzz;
e|-----------------------------------------------------------------------|
B|---7----------------5-----------------7------------------3-------------|
G|---7----------------6-----------------7------------------4-------------|
D|---7----------------7-----------------9------------------5-------------|
A|---5----------------7-----------------9------------------5-------------|
E|---5----------------5-----------------7------------------3-------------|
.....It's worse when.....

^^^Repeat parts^^^

>>>>>>>>>>>>>>>>>>>>>>>>>>>>>>>>>>>>>>>>>>>>>>>>>>>>>>>>>>>>>>>>>>>>>>>>>>>>>

>>>Post-chorus; 1:13

Guitar 1; Clean
e|-------------------------------------------------------------|
B|-------------------------------------------------------------|
G|------------------------------------------7-7-7-8-8-8-10-10--|
D|------------------------------------------7-7-7-7-7-7--7--7--|
A|-------------------------------------------------------------|
E|-------------------------------------------------------------|

Guitar 2; Distortion; Fuzz
e|-------------------------------------------------------------|
B|-------------------------------------------------------------|
G|--/14(hold + feedback)---------------------------------------|
D|-------------------------------------------------------------|
A|-------------------------------------------------------------|
E|-------------------------------------------------------------|

Guitar 3; Clean strumming;
e|--5----------5----------3------------------------------------|
B|--7----------5----------3----------5-------------------------|
G|--7----------6----------4----------6-------------------------|
D|--7----------7----------5----------7-------------------------|
A|--5----------7----------5----------7-------------------------|
E|--5----------5----------3----------5-------------------------|

>>>>>>>>>>>>>>>>>>>>>>>>>>>>>>>>>>>>>>>>>>>>>>>>>>>>>>>>>>>>>>>>>>>>>>>>>>>>

>>>Repeat Verse; 1:20

>>>>>>>>>>>>>>>>>>>>>>>>>>>>>>>>>>>>>>>>>>>>>>>>>>>>>>>>>>>>>>>>>>>>>>>>>>>>

>>>Repeat Chorus; 1;43

>>>>>>>>>>>>>>>>>>>>>>>>>>>>>>>>>>>>>>>>>>>>>>>>>>>>>>>>>>>>>>>>>>>>>>>>>>>>

>>>Repeat Post-chorus with no guitar 1; 2;03

>>>>>>>>>>>>>>>>>>>>>>>>>>>>>>>>>>>>>>>>>>>>>>>>>>>>>>>>>>>>>>>>>>>>>>>>>>>>

>>>Bridge; 2:10

Guitar 1; Clean;
e|--------10------------------------------------------------------------|
B|--12-12----12--(played throughout bridge)-----------------------------|
G|----------------------------------------------------------------------|
D|----------------------------------------------------------------------|
A|----------------------------------------------------------------------|
E|----------------------------------------------------------------------|

Guitar 2; Clean; Stabbed chords, on 3rd beat of each bar.
e|--------7--------5--------5--------3--------7-------5-----------------|
B|--------7--------5--------7--------3--------7-------5-----------------|
G|--------7--------6--------7--------4--------7-------6-----------------|
D|--------9--------7--------7--------5--------9-------7-----------------|
A|--------9--------7--------5--------5--------9-------7-----------------|
E|--------7--------5--------5--------3--------7-------5-----------------|

Guitar 3; Clean Chords; Strummed chords
e|-----------------------------3----------------------------------------|
B|--7--------5--------7--------3--------7--------5--------7--------7----|
G|--7--------6--------7--------4--------7--------6--------7--------7----|
D|--9--------7--------7--------5--------9--------7--------7--------7----|
A|--9--------7--------5--------5--------9--------7--------5--------5----|
E|--7--------5-------(5)------(3)-------7--------5--------5-------------|
....some say you're dead....
....We traded rings.........

^^^Repeat^^^


then; 2;30


Guitar 1; Same as above

Guitar2; Clean; Strummed;
e|-----------2-------------------------3----------------5----------------|
B|--7--------2--------7----------------3----------------5----------------|
G|--7--------2--------7----------------4----------------6----------------|
D|--9--------4--------9----------------5----------------7----------------|
A|--9--------4--------9----------------5----------------7----------------|
E|--7--------2--------7----------------3----------------5----------------|
....Goodbyes are final now.............So goodbye.......Goodbye...

Guitar 3; same as guitar 2;

>>>then; 2:40;


Guitar 1; Distortion; Fuzz;
e|--5--------------------------------|
B|--7--------3--------7----5----3----|
G|--7--------4--------7----6----4----|
D|--7--------5--------9----7----5----|
A|--5--------5--------9----7----5----|
E|-----------3--------7----5----3----|

Guitar 2; Distortion; Fuzz;
e|---------------------2---------------------------------------------|
B|-------------------------------------------------------------------|
G|--7--6--7--6--7--6--4-4-2---7--6--7--6--7--6--11-11b12b11-10-------|
D|--7--7--7--7--7--7----------7--7--7--7--7--7-----------------------|
A|-------------------------------------------------------------------|
E|-------------------------------------------------------------------|

Guitar 3; Distortion; Fuzz; (Same as Guitar 1)
e|--5--------------------------------|
B|--7--------3--------7----5----3----|
G|--7--------4--------7----6----4----|
D|--7--------5--------9----7----5----|
A|--5--------5--------9----7----5----|
E|-----------3--------7----5----3----|
...Goodbye....Goodbye...
>>>>>>>>>>>>>>>>>>>>>>>>>>>>>>>>>>>>>>>>>>>>>>>>>>>>>>>>>>>>>>>>>>>>>>>>>>>>

>>>Outro

Guitar 1; Same as above


Guitar 2; Distortion; Fuzz;
e|-----------------------------------|
B|-----------------------------------|
G|-----Same as intro...........------|
D|-----------------------------------|
A|-----------------------------------|
E|-----------------------------------|

Guitar 3; Distortion; Fuzz;
e|-----------------------------------|
B|-----------------------------------|
G|-----Same as intro..........-------|
D|-----------------------------------|
A|-----------------------------------|
E|-----------------------------------|


>>>then; 3:18

Guitar 1; Same as above

Guitar 2; Distortion; Fuzz;
e|--------------------------13---------------------|
B|-10/12-10-10----10/12-/15-15b--15-12-12-10-12-8--|
G|--9/11-11-11-11--9/11-/14-14b--14-11-11--9-11-7--|
D|-------------------------------------------------|
A|-------------------------------------------------|
E|-------------------------------------------------|

e|--------------------------13----------------------|
B|-10/12-10-10----10/12-/15-15b--15-12-12-10-12-7b--|
G|--9/11-11-11-11--9/11-/14-14b--14-11-11--9-11-7b--|
D|--------------------------------------------------|
A|--------------------------------------------------|
E|--------------------------------------------------|


Guitar 3; Same as guitar 1

The END.

>>>>>>>>>>>>>>>>>>>>>>>>>>>>>>>>>>>>>>>>>>>>>>>>>>>>>>>>>>>>>>>>>>>>>>>>>>>>

Lyrics; Chords;

>>>Intro... ^^see above^^

>>>Verse

D............A...........Bm...............G............
..She wakes up, with her hair down her heart's infected.

D..................A............Bm..........
..Her makeup's the least of her worries now.

G...........................................
Her heart's infected, but she's already gone.

>>>

D........................A............................
"Its's worse when you're young, it's worse when you're

................Bm..............................G......
young you can't talk the words, they block your tongue"

D.......................A............................
"It's worse when you're young, it's worse when you're

...........Bm...................................G......
young you can't talk the words, they block your tongue"

>>>

D..A..G..A....

>>>

D.........................A........................Bm.............G....
..she don't mean what she says, she's only got one day to make it right.

D......................A...................
..And I don't make the rules, but I"ve seen

.....Bm...........G..................
his face late at night. That's right.

>>>

(Chorus as above)

"Its's worse when you're young, it's worse when you're
young you can't talk the words, they block your tongue"
"It's worse when you're young, it's worse when you're
young you can't talk the words, they block your tongue"

>>>

D..A..G..A...

>>>

Bm.......A................G.....................D...
Some say you're dead, the sweetest face on your head

....Bm.........A................D....
and everyone I know misses your lies.

Bm..................A..............D..........G........
We traded rings and luck things, I wish I had mine now,

....Bm...............A................D.........
and a lot of good my kisses did your dead mouth.

Bm...........F#m.......Bm.......
Goodbyes are final now she swore.

...G........A......
So goodbye, goodbye,

D........G........Bm..........A..................G....
goodbye, goodbye, goodbye, to all the things you love.

D........G........Bm..........A..................G....
goodbye, goodbye, goodbye, to all the things you love.

D...G...Bm...A...G....

D...G...Bm...A...G....

>>>>>>>>>>>>>>>>>>>>>>>>>>>>>>>>>>>>>>>>>>>>>>>>>>>>>>>>>>>>>>>>>>>>>>>

>>>Chords

.....D......A......Bm.....G......F#...
e|---2------0------2------3------2---|
B|---3------2------3------3------2---|
G|---2------2------4------0------2---|
D|---0------2------4------0------4---|
A|---0------0------2------2------4---|
E|----------0------2------3------2---|

>>>>>>>>>>>>>>>>>>>>>>>>>>>>>>>>>>>>>>>>>>>>>>>>>>>>>>>>>>>>>>>>>>>>>>>
Tap to rate this tab
 
# A B C D E F G H I J K L M N O P Q R S T U V W X Y Z