Song name
# A B C D E F G H I J K L M N O P Q R S T U V W X Y Z

Nevada Tan - Dein Echo tab

Highlighted       Show chord diagrams
DEIN ECHO TAB

C tuning (C-F-Bb-Eb-G-C)

|-----||-----||-----||-----||-----||-----||-----||-----|
|-----||-----||-----||-----||-----||-----||-----||-----|
|-----||-----||-----||--6--||--2--||--7--||--10-||--4--|
|--8--||--6--||--3--||--6--||--2--||--7--||--10-||--4--|
|--8--||--6--||--3--||--4--||--3--||--5--||--8--||--2--|
|--6--||--4--||--1--||-----||-----||-----||-----||-----|
  F#5    Fb5    D5     A#5    A5     B5     D5     G5


Verse 1

|--------------------------------------------------------------------|
|--------------------------------------------------------------------|
|---9-9-9-10-9-7-------9-9-9-10-9-7------9-9-9-10-9-7-------9-9-10-9-|
|-7-------------10-9-7-------------10-9-7-------------10-9-7---------| X3
|--------------------------------------------------------------------|
|--------------------------------------------------------------------|

           B5         D5 
Und der Schmerz vergeht nicht
      A5 
Es geht nicht
               G5 
Du fehlst mir hier


Chorus

      F#5       Fb5          D5
Dein Echo zerschlgt meine Wand
                                   A#5
Trmmer der Realitt, ber die ich geh und ich versteh
      A5
Es ist zu spat
      F#5         Fb5         D5
Dein Echo frisst meinen Verstand

Es verhallt tief in mir,

Es wird kalt
         A#5                  A5
Und ich spr wie ich mich verlier

Verse 2 (Same as verse 1)

Chorus

Bridge

|-------------|
|-------------|
|-------------|
|-2-2-4-5-3-2-| X8
|-2-2-4-5-3-2-|
|-0-0-2-3-1-0-|


Chorus X2

Tap to rate this tab
# A B C D E F G H I J K L M N O P Q R S T U V W X Y Z