Guitaretab - guitar tabs
Song name
# A B C D E F G H I J K L M N O P Q R S T U V W X Y Z

Nevea Tears - Helium Queen tab

----------------------------------------------------------------------------
			 Helium Queen  Nevea Tears
----------------------------------------------------------------------------

Tabbed by: Jake

I tabbed this just for 1 guitar. Please rate and comment.

Tuning: Drop C

    Intro             repeat this part until verse
D|-------------------------------------------------------------------------|
A|-----------6---6---5---5---3---3---5---5---------------------------------|
F|-------------2---2---2---2---2---2---2---2-------------------------------|
C|--0~---------------------------------------------------------------------|
G|--0~---------------------------------------------------------------------|
C|--0~---------------------------------------------------------------------|
   
   Verse  repeat until chorus
D|-------------------------------------------------------------------------|
A|-------------------------------------------------------------------------|
F|-------------------------------------------------------------------------|
C|-0000000-0-0000-0-00-00--------------------------------------------------|
G|-0000000-0-0000-0-00-00--------------------------------------------------|
C|-0000000-0-0000-0-00-00--------------------------------------------------|
   ....... . .... . .. ..  palm mute

  Chorus
D|-------------------------------------------------------------------------|
A|-------------------------------------------------------------------------|
F|--7-----5-----7-----5-----14---16---17---19---14---16---17---19----------|
C|--x-x16-x-x16-x-x16-x-x16-xx8-x-x8-x-x8-x-x8-x-x8-x-x8-x-x8-x-x8--------|
G|--5-----3-----5-----3-----12---14---15---17---12---14---15---17----------|
C|-------------------------------------------------------------------------|
[ Tab from: http://www.guitaretab.com/n/nevea-tears/76532.html ]
   Verse  repeat until chorus
D|-------------------------------------------------------------------------|
A|-------------------------------------------------------------------------|
F|-------------------------------------------------------------------------|
C|-0000000-0-0000-0-00-00--------------------------------------------------|
G|-0000000-0-0000-0-00-00--------------------------------------------------|
C|-0000000-0-0000-0-00-00--------------------------------------------------|
   ....... . .... . .. ..  palm mute

  Chorus
D|-------------------------------------------------------------------------|
A|-------------------------------------------------------------------------|
F|--7-----5-----7-----5-----14---16---17---19---14---16---17---19----------|
C|--x-x16-x-x16-x-x16-x-x16-xx8-x-x8-x-x8-x-x8-x-x8-x-x8-x-x8-x-----------|
G|--5-----3-----5-----3-----12---14---15---17---12---14---15---17----------|
C|-------------------------------------------------------------------------|
  
    Do this x2 after the breakdown 
D|-------------------------------------------------------------------------|
A|-------------------------------------------------------------------------|
F|-------------------------------------------------------------------------|
C|-0000000-0-0000-0-00-00--------------------------------------------------|
G|-0000000-0-0000-0-00-00--------------------------------------------------|
C|-0000000-0-0000-0-00-00--------------------------------------------------|
   ....... . .... . .. ..  palm mute

  Chorus
D|-------------------------------------------------------------------------|
A|-------------------------------------------------------------------------|
F|--7-----5-----7-----5-----14---16---17---19---14---16---17---19----------|
C|--x-x16-x-x16-x-x16-x-x16-xx8-x-x8-x-x8-x-x8-x-x8-x-x8-x-x8-x-x8--------|
G|--5-----3-----5-----3-----12---14---15---17---12---14---15---17----------|
C|-------------------------------------------------------------------------|

  Outro
D|-------------------------------------------------------------------------|
A|-------------------------------------------------------------------------|
F|--19----17----19----17----14---16---17---19---14---16---17---19---19~----|
C|--x-x16-x-x16-x-x16-x-x16-xx8-x-x8-x-x8-x-x8-x-x8-x-x8-x-x8-x-x8-x------|
G|--17----15----17----15----12---14---15---17---12---14---15---17---17~----|
C|-------------------------------------------------------------------------|

  www.purevolume.com/neveatears