Song name
# A B C D E F G H I J K L M N O P Q R S T U V W X Y Z

Never Again - Repulsed tab

NEVER AGAIN - INTRO / REPULSED

http://www.myspace.com/neveragainxxx

e|------------------------|
b|------------------------|
G|------------------------|
D|-2----4--4/7-3------2/3-| x2
A|-2----2--2/5-1------2/3-|
D|-2------------------2/3-|

e|---------------------------------------------|
b|---------------------------------------------|
G|---------------------------------------------|
D|-2----4--4/7-3-3-3-3-3-3-3-3-3-3-3-3-3-3-2/3-| 
A|-2----2--2/5-1-1-1-1-1-1-1-1-1-1-1-1-1-1-2/3-|
D|-2---------------------------------------2/3-|
               P M P M P M P M P M P M P M

e|--------------------|
b|--------------------|
G|----------7----3----|
D|-2--------7----3----| x4
A|-2--------5----1----|
D|-2------------------|

e|---------------------------------------------------|
b|---------------------------------------------------|
G|---------------------------------------------------|
D|-2-----------------------------7-7-7-7-7-3-3-3-3-3-| 
A|-2-2-2-2-2-2-2-2-2-2-2-2-2-2-2-5-5-5-5-5-1-1-1-1-1-|
D|-2-2-2-2-2-2-2-2-2-2-2-2-2-2-2---------------------|
     P M P M P M P M P M P M P M 

e|------------|
b|------------|
G|------------|
D|-2--------2-| 
A|-2--------2-|
D|-2--------2-|

e|-------------------------------|
b|-------------------------------|
G|-9-9-9-7-7-7-10-10-10-12-12-12-|
D|-9-9-9-7-7-7-10-10-10-12-12-12-| 1,2,3,5,6,7
A|-7-7-7-5-5-5-8--8--8--10-10-10-|
D|-------------------------------|

e|----------------------------------|
b|----------------------------------|
G|-15-15-15-14-14-14-12-12-12-9-9-9-|
D|-15-15-15-14-14-14-12-12-12-9-9-9-| 4,8
A|-13-13-13-12-12-12-10-10-10-7-7-7-|
D|----------------------------------|

e|----------------------|
b|----------------------|
G|-9--------------------|
D|-9---------3---3------|
A|-7---0-0-0-3---3--0-0-|
D|-----0-0-0-3---3--0-0-|
       PMP M        P M

e|---------------------------------------------------------------|
b|---------------------------------------------------------------|
G|---------------------------------------------------------------|
D|-11\10---------------1--2--3--1-11\10-----------2-1-0--0--0--0-| x6
A|-9-\8--3-3-3-3-3-3-3-1--2--3--1-9-\8--3-3-3-3-3-2-1-0--0--0--0-|
D|-------3-3-3-3-3-3-3-1--2--3--1-------3-3-3-3-3-2-1-0--0--0--0-|
         P M P M P MPM               P M P MPM

e|---------------------|
b|---------------------|
G|-9----9----9----9----|
D|-9----9----9----9----|
A|-7----7----7----7----|
D|---------------------|

e|-------------------------------|
b|-------------------------------|
G|-9-9-9-7-7-7-10-10-10-12-12-12-|
D|-9-9-9-7-7-7-10-10-10-12-12-12-| x3
A|-7-7-7-5-5-5-8--8--8--10-10-10-|
D|-------------------------------|

e|----------------------------------|
b|----------------------------------|
G|-15-15-15-14-14-14-12-12-12-9-9-9-|
D|-15-15-15-14-14-14-12-12-12-9-9-9-| 
A|-13-13-13-12-12-12-10-10-10-7-7-7-|
D|----------------------------------|

e|-----------|
b|-----------|
G|-9----9--9-|
D|-9----9--9-|
A|-7----7--7-|
D|-----------|
Tap to rate this tab
# A B C D E F G H I J K L M N O P Q R S T U V W X Y Z