Song name
# A B C D E F G H I J K L M N O P Q R S T U V W X Y Z

Never Again - Iron Youth tab

NEVER AGAIN - IRON YOUTH

e|-------------------------------------------------|
b|-------------------------------------------------|
G|-------------------------------------------------|
D|-------------------------------------6-6-6-------|
A|-4-5-5-4-5-5-4-5-5-8-8-8-4-5-5-4-5-5-4-4-4-8-8-8-|
D|-4-5-5-4-5-5-4-5-5-8-8-8-4-5-5-4-5-5-------8-8-8-|

e|----------------------------------------------------------|
b|----------------------------------------------------------|
G|----------------------------------------------------------|
D|----------------------------------------------------------| x4
A|-8-8-5-5-8-8-5-5-8-8-6-6-5-555-555-555-555-555-555-555-55-|
D|-8-8-5-5-8-8-5-5-8-8-6-6-5-555-555-555-555-555-555-555-55-|
                             P M P M P M P M P M P M P M PM

e|------------------------------------------|
b|------------------------------------------|
G|------------------------------------------|
D|-------------------------5----------------|
A|-8-8-5-5-8-8-5-5-8-8-6-6-5----------------|
D|-8-8-5-5-8-8-5-5-8-8-6-6-5----------------|
                             

e|-----------------------------|
b|-----------------------------|
G|-----------------------------|
D|-----------------------------| x8
A|-5-5-5-1-1-1-6-6-6-6-5-5-5-5-|
D|-5-5-5-1-1-1-6-6-6-6-5-5-5-5-|

e|-----------------------------|
b|-----------------------------|
G|-----------------------------|
D|-----------------------------| x4
A|-5-5-5-1-1-1-6-6-6-6-5-5-5-5-|
D|-5-5-5-1-1-1-6-6-6-6-5-5-5-5-|
   P M P M P M P M P M P M P M


e|------------------|
b|------------------|
G|------------------|
D|-5----------------|
A|-5----------------|
D|-5----------------|
Tap to rate this tab
 
# A B C D E F G H I J K L M N O P Q R S T U V W X Y Z