Song name
# A B C D E F G H I J K L M N O P Q R S T U V W X Y Z

Never Again - Your Persona tab

NEVER AGAIN - YOUR PERSONA

e|----------------------------|
b|----------------------------|
G|----------------------------|
D|- drums --------------------|
A|----------/7----------------|
D|----------------------------|

e|-------------------------------------------------|
b|-------------------------------------------------|
G|-------------------------------------------------|
D|-3-3-3-------3-3-3-------3-3-3-------------------| x2
A|-1-1-1-2-2-2-1-1-1-2-2-2-1-1-1-2-2-2-5-5-5-6-6-6-|
D|-------2-2-2-------2-2-2-------2-2-2-5-5-5-6-6-6-|

e|----------|
b|----------|
G|----------|
D|-5--8-8-8-| x2
A|-5--8-8-8-|
D|-5--8-8-8-|

e|----------------------------------|
b|----------------------------------|
G|----------------------------------|
D|----------------------------------|
A|-2-2-2-2-2-2-5-5-5-6-6-6-2--------|
D|-2-2-2-2-2-2-5-5-5-6-6-6-2--------|

e|-------------------------------------------------|
b|-------------------------------------------------|
G|-------------------------------------------------|
D|-3-3-3-------3-3-3-------3-3-3-------------------| 
A|-1-1-1-2-2-2-1-1-1-2-2-2-1-1-1-2-2-2-5-5-5-6-6-6-|
D|-------2-2-2-------2-2-2-------2-2-2-5-5-5-6-6-6-|

e|------------------------------------------------|
b|------------------------------------------------|
G|------------------------------------------------|
D|-3-3-3-------3-3-3-------3-3-3-------3--3-------| 
A|-1-1-1-2-2-2-1-1-1-2-2-2-1-1-1-2-2-2-1--1--3--3-|
D|-------2-2-2-------2-2-2-------2-2-2-------3--3-|

e|-----------------------------------|
b|-----------------------------------|
G|-----------------------------------|
D|-2----------------2----------------|
A|-2----------------2----------------|
D|-2----------------2----------------|

e|-----------------------------|
b|-----------------------------|
G|-----------------------------|
D|-----3-----------------------| x8
A|-2-2-1-0-2-0-0-2-0-0-2-0-2/3-|
D|-2-2---0-2-0-0-2-0-0-2-0-2/3-|
   P M  PM   P M   P M  PM

e|------------------|
b|------------------|
G|------------------|
D|-2----------------|
A|-2----------------|
D|-2----------------|
Tap to rate this tab
 
# A B C D E F G H I J K L M N O P Q R S T U V W X Y Z