Song name
# A B C D E F G H I J K L M N O P Q R S T U V W X Y Z

Never Again - Anxiety Attack tab

NEVER AGAIN - ANXIETY ATTACK

e|---------------------------------------------------------------|
b|---------------------------------------------------------------|
G|---------------------------------------------------------------|
D|-----------------------------------------------8-8-8-8-8-7-7-7-| x5
A|-6-5-5-5-5-5-5-5-6-5-5-5-5-6-8-6-5-5-5-5-5-5-5-6-6-6-6-6-5-5-5-|
D|-6-5-5-5-5-5-5-5-6-5-5-5-5-6-8-6-5-5-5-5-5-5-5-----------------|

e|------|
b|------|
G|------|
D|-5----|
A|-5----|
D|-5----|

e|--------------------------------|
b|--------------------------------|
G|--------------------------------|
D|-6-----8------------------------| x4
A|-4--5--6--5--6--5-5-5-5-3-5-5-5-|
D|----5-----5--6--5-5-5-5-3-5-5-5-|

e|---------------------------------|
b|---------------------------------|
G|---------------------------------|
D|-6-6-6-------8-8-8-6-6-6---------| x2
A|-4-4-4-5-5-5-6-6-6-4-4-4-5-5-6-6-|
D|-------5-5-5-------------5-5-6-6-|

e|---------------------------------|
b|---------------------------------|
G|---------------------------------|
D|-6-6-6-------8-8-8-6-6-6---------| x2
A|-4-4-4-5-5-5-6-6-6-4-4-4-5-5-6-6-|
D|-------5-5-5-------------5-5-6-6-|
   P M P M P M P M P M P M P M P M

e|---------------------------------|
b|---------------------------------|
G|---------------------------------|
D|-6-6-6-------8-8-8-6-6-6---------| x2
A|-4-4-4-5-5-5-6-6-6-4-4-4-5-5-6-6-|
D|-------5-5-5-------------5-5-6-6-|

e|----------|
b|----------|
G|----------|
D|-5--------|
A|-5--------|
D|-5--------|
Tap to rate this tab
# A B C D E F G H I J K L M N O P Q R S T U V W X Y Z