Song name
# A B C D E F G H I J K L M N O P Q R S T U V W X Y Z

Never Again - Pressure Ii tab

NEVER AGAIN - PRESSURE II

e|---------|
b|---------|
G|-6---6---|
D|-6---6---|
A|-4---4---|
D|---------|

e|-------------------------|
b|-------------------------|
G|-------------------------|
D|-5-5-5-8-8-8-6-6-6-6-6-6-| x4
A|-5-5-5-8-8-8-6-6-6-4-4-4-|
D|-5-5-5-8-8-8-6-6-6-------|

e|-------------------------|
b|-------------------------|
G|-------------------------|
D|-6-6-6-6-6-6-5-5-5-5-5-5-| 1,3
A|-4-4-4-6-6-6-5-5-5-5-5-5-|
D|-------6-6-6-5-5-5-5-5-5-|

e|---------------------|
b|---------------------|
G|---------------------|
D|-6-6-6-6-6-6-5-5-5-5-| 2
A|-4-4-4-6-6-6-5-5-5-5-|
D|-------6-6-6-5-5-5-5-|

e|---------------------------------|
b|---------------------------------|
G|---------------------------------|
D|-6-6-6-6-6-6-6-6-6-6-6-6-6-6-6-6-|
A|-4-4-4-4-4-4-4-4-4-4-4-4-4-4-4-4-|
D|---------------------------------|
   P M P M P M P M P M P M P M P M

e|-------------------------|
b|-------------------------|
G|-------------------------|
D|-8--6--5--6--5--3--6--5--| x2
A|-8--6--5--6--5--3--6--5--|
D|-8--6--5--6--5--3--6--5--|

e|-------|
b|-------|
G|-------|
D|-------|
A|-1-1-1-|
D|-1-1-1-|
   P MPM

e|-------------------------|
b|-------------------------|
G|-------------------------|
D|-5-5-5-8-8-8-6-6-6-6-6-6-| x4
A|-5-5-5-8-8-8-6-6-6-4-4-4-|
D|-5-5-5-8-8-8-6-6-6-------|

e|---------------------------------|
b|---------------------------------|
G|-6---------6--------6------------|
D|-6---------6--------6------------|
A|-4---------4--------4------6-6-5-|
D|---------------------------6-6-5-|

e|--------------------------------------|
b|--------------------------------------|
G|--------------------------------------|
D|------------3--5--------3-5-------3-5-|
A|------------3--5--------3-5-------3-5-|
D|------------3--5--------3-5-------3-5-|

e|---------------------------------|
b|---------------------------------|
G|---------------------------------|
D|---------------------6-6-6-6-6-6-|
A|-5-5-5-5-5-5-5-8-8-8-4-4-4-4-4-4-|
D|-5-5-5-5-5-5-5-8-8-8-------------|
   P M P M P M P M P M P M P M P M

e|-----------------------------|
b|-----------------------------|
G|-----------------------------|
D|---------------------6-6-6---|
A|-5-5-5-5-8-8-8-6-6-6-4-4-4-6-|
D|-5-5-5-5-8-8-8-6-6-6-------6-|
Tap to rate this tab
# A B C D E F G H I J K L M N O P Q R S T U V W X Y Z