Song name
# A B C D E F G H I J K L M N O P Q R S T U V W X Y Z

Never Heard Of It - Hard Headed tab

Artist: Never Heard Of It
Song: Hard Headed
Album: 11 Days
Tuning: Dropped D

Intro:
Guitar 1
e|--------------------------------------------------------------------------|
B|--------------------------------------------------------------------------|
G|-10101010101010-10/11\10--8-8-8-8-8-8-8-8-8/10\8--6-6-6-6-6-6-6-6\5-5-5-5-|
D|--x-x-x-x-x-x-x--x--x--x--x-x-x-x-x-x-x-x-x--x-x--x-x-x-x-x-x-x-x-x-x-x-x-|
A|--8-8-8-8-8-8-8--8/-9\-8--6-6-6-6-6-6-6-6-6/-8\6--4-4-4-4-4-4-4-4\3-3-3-3-|
D|--------------------------------------------------------------------------|

Guitar 1
e|------------------------------------------------|
B|------------------------------------------------|
G|-10101010101010-10/11\10---8-8-8-8-8-8--8/10\8--|
D|--x-x-x-x-x-x-x--x--x--x---x-x-x-x-x-x--x--x-x--|
A|--8-8-8-8-8-8-8--8/-9\-8---6-6-6-6-6-6--6/-8\6--|
D|------------------------------------------------|

Guitar 2
e|---------------------------------------------------|
B|---------------------------------------------------|
G|-6-6-6-6-6-6-6-6-----------------------------------|
D|-6-6-6-6-6-6-6-6--6-6-6-6-6-6-6-6--4-4-4-4-4-4-4-4-|
A|-4-4-4-4-4-4-4-4--6-6-6-6-6-6-6-6--4-4-4-4-4-4-4-4-|
D|------------------6-6-6-6-6-6-6-6--4-4-4-4-4-4-4-4-|

Guitar 2
e|-----------------------------------|
B|-----------------------------------|
G|-6-6-6-6-6-6-6-6-------------------|
D|-6-6-6-6-6-6-6-6--6-6-6-6-6-6-6-6--|
A|-4-4-4-4-4-4-4-4--6-6-6-6-6-6-6-6--|
D|------------------6-6-6-6-6-6-6-6--|

Verse:
Guitar 1-2
e|-----------------------------------------------|
B|-----------------------------------------------|
G|-6----------6----6-----------------------------|
D|-6-66666666-6-66-6-6666-6----------6----6------|
A|-4-44444444-4-44-4-4444-6-66666666-6-66-6-6666-|
D|------------------------6-66666666-6-66-6-6666-|
     ********   **   ****   ********   **   ****
e|-----------------------------------------------|
B|-----------------------------------------------|
G|-----------------------------------------------|
D|-8----------8----8------4----------4----4------|
A|-8-88888888-8-88-8-8888-4-44444444-4-44-4-4444-|
D|-8-88888888-8-88-8-8888-4-44444444-4-44-4-4444-|
     ********   **   ****   ********   **   ****
Guitar 1
e|----------------------------------------------------|
B|--2/9~~~~~~~~~~~~~~~~~-2/9--7--6--4--2~~~~~~~~~~~~--|
G|----------------------------------------------------|
D|----------------------------------------------------|
A|----------------------------------------------------|
D|----------------------------------------------------|

Guitar 2
e|-------------------------------------------------------------------------|
B|-------------------------------------------------------------------------|
G|-66666666666666666-------------------------------------------------------|
D|-66666666666666666-66666666666666666-88888888888888888-44444444444444444-|
A|-44444444444444444-66666666666666666-88888888888888888-44444444444444444-|
D|-------------------66666666666666666-88888888888888888-44444444444444444-|

Pre Chorus:
Guitar 1-2
e|-------------------------------------------|
B|-------------------------------------------|
G|-------------------------------------------|
D|-6~~~~--8-----3-4~~--6~~~~-888888----------|
A|-6~~~~--8-888-3-4~~--6~~~~-888888-4444444--|
D|-6~~~~--8-888-3-4~~--6~~~~-888888-4444444--|
            ***                     *******
Chorus:
Guitar 1-2
e|-------------------------------------------------------------------------|
B|-------------------------------------------------------------------------|
G|-66666666666666666-------------------------------------------------------|
D|-66666666666666666-66666666666666666-88888888888888888-44444444444444444-|
A|-44444444444444444-66666666666666666-88888888888888888-44444444444444444-|
D|-------------------66666666666666666-88888888888888888-44444444444444444-|

Verse:
Guitar 1-2
e|-----------------------------------------------|
B|-----------------------------------------------|
G|-6----------6----6-----------------------------|
D|-6-66666666-6-66-6-6666-6----------6----6------|
A|-4-44444444-4-44-4-4444-6-66666666-6-66-6-6666-|
D|------------------------6-66666666-6-66-6-6666-|
     ********   **   ****   ********   **   ****
e|-----------------------------------------------|
B|-----------------------------------------------|
G|-----------------------------------------------|
D|-8----------8----8------4----------4----4------|
A|-8-88888888-8-88-8-8888-4-44444444-4-44-4-4444-|
D|-8-88888888-8-88-8-8888-4-44444444-4-44-4-4444-|
     ********   **   ****   ********   **   ****
Guitar 1
e|----------------------------------------------------|
B|--2/9~~~~~~~~~~~~~~~~~-2/9--7--6--4--2~~~~~~~~~~~~--|
G|----------------------------------------------------|
D|----------------------------------------------------|
A|----------------------------------------------------|
D|----------------------------------------------------|

Guitar 2
e|-------------------------------------------------------------------------|
B|-------------------------------------------------------------------------|
G|-66666666666666666-------------------------------------------------------|
D|-66666666666666666-66666666666666666-88888888888888888-44444444444444444-|
A|-44444444444444444-66666666666666666-88888888888888888-44444444444444444-|
D|-------------------66666666666666666-88888888888888888-44444444444444444-|

Pre Chorus:
Guitar 1-2
e|------------------------------------------------------|
B|------------------------------------------------------|
G|------------------------------------------------------|
D|-6-66-6-6-66--8-----3-4~~--6-66-6-6-66-888888---------|
A|-6-66-6-6-66--8-888-3-4~~--6-66-6-6-66-888888-4444444-|
D|-6-66-6-6-66--8-888-3-4~~--6-66-6-6-66-888888-4444444-|
                  ***                           *******
Chorus: 2x
Guitar 1-2
e|-------------------------------------------------------------------------|
B|-------------------------------------------------------------------------|
G|-66666666666666666-------------------------------------------------------|
D|-66666666666666666-66666666666666666-88888888888888888-44444444444444444-|
A|-44444444444444444-66666666666666666-88888888888888888-44444444444444444-|
D|-------------------66666666666666666-88888888888888888-44444444444444444-|

Bridge:
Guitar 2
e|-----------|
B|-----------|
G|-6~~~~~~~~-|
D|-6~~~~~~~~-|
A|-4~~~~~~~~-|
D|-----------|

Guitar 1 
e|----------------------------------------------------|
B|-4442224442227766-4442224442227766-4442224442227766-|
G|----------------------------------------------------|
D|----------------------------------------------------|
A|----------------------------------------------------| 
D|----------------------------------------------------|

Guitar 1-2 
e|------------|
B|------------|
G|-8--10--11~-|
D|-x---x---x--|
A|-6---8---9~-| 
D|------------|

Guitar 1 
e|----------------------------------------------------|
B|-4442224442227766-4442224442227766-4442224442227766-|
G|----------------------------------------------------|
D|----------------------------------------------------|
A|----------------------------------------------------| 
D|----------------------------------------------------|

Guitar 1-2 
e|------------|
B|------------|
G|-8--10--11~-|
D|-x---x---x--|
A|-6---8---9~-| 
D|------------|

Pre Chorus:
Guitar 1-2
e|-------------------------------------------------|
B|-------------------------------------------------|
G|-------------------------------------------------|
D|-6~~~~--8-----3-4~~--6~~~~-101010101010----------|
A|-6~~~~--8-888-3-4~~--6~~~~-101010101010-4444444--|
D|-6~~~~--8-888-3-4~~--6~~~~-101010101010-4444444--|
            ***                           *******
Chorus: 5x
Guitar 1-2
e|-------------------------------------------------------------------------|
B|-------------------------------------------------------------------------|
G|-66666666666666666-------------------------------------------------------|
D|-66666666666666666-66666666666666666-88888888888888888-44444444444444444-|
A|-44444444444444444-66666666666666666-88888888888888888-44444444444444444-|
D|-------------------66666666666666666-88888888888888888-44444444444444444-|

End:
Guitar 1-2
e|------------|
B|------------|
G|-----6~~~~~-|
D|-666-6~~~~~-|
A|-444-4~~~~~-|
D|------------|
   ***



Tap to rate this tab
 
# A B C D E F G H I J K L M N O P Q R S T U V W X Y Z