Never Heard Of It - Finger On The Trigger tab

* means to palm mute
x means to mute
b means to bend
p means to pull off

there is a difference between palm mutes and regular mutes.
I love this song it's so catchy and awesome I first heard this on Burnout Paradise City 
like most people have and Never Heard Of It is my new Favorite band.





Intro/Chorus (each chord is played 8 times)

E----------------------------------------------|
b----------------------------------------------|
g-7--------9-----------------------------------|
d-7--------9--------7--------5-----------------|
a-5--------7--------7--------5-----------------|
e-------------------5--------3-----------------|
                                                               x2

Verse:

E------------------------------------------------------------|
b------------------------------------------------------------|
g------------------------------------------------------------|
d-7-----------5-----------9-----------7--9--7--5-------------|
a-7-----------5-----------9-----------7--9--7--5-------------|
e-5-----------3-----------7-----------5--7--5--3-------------|

E----------------------------------------------------------------------------------------|
b----------------------------------------------------------------------------------------|
g-5------5-5-5----5-5-5----5-5-5---------------------------------------------------------|
d-5------5-5-5----5-5-5----5-5-5---------------------------------------------------------|
a-3------3-3-3----3-3-3----3-3-3---5-5-5-5-5-5-5-5-5-5-5-5-5-5-5-5-----------------------|
e--------------------------------3-3-3-3-3-3-3-3-3-3-3-3-3-3-3-3-------------------------|
                                             *  *  *  *  *  *  *  *  *  *  *  *  *  *  *  *

E-------------------------------------------------------|
b-------------------------------------------------------|
g-------------------------------------------------------|
d-7------7-7-7----7-7-7----7-7-7----7----5--------------|
a-7------7-7-7----7-7-7----7-7-7----7----5--------------|
e-5------5-5-5----5-5-5----5-5-5----5----3--------------|

Pre-Chorus:

 Play this when hear the lead singer

E------------------------------------------------------------------------|
b------------------------------------------------------------------------|
g--5-5-5---5-5-5---5-5---------------------------------------------------|
d--5-5-5---5-5-5---5-5-(stop till you--------5-5-5---5-5-5---5-5---------|
a--3-3-3---3-3-3---3-3-hear lead singer)--5-5-5---5-5-5---5-5------------|
e---------------------------------------------------3-3-3---3-3-3---3-3--|


Repeat Verse
Repeat Pre-Chorus
Repeat Intro/Chorus


Bridge:

E--------------------------------------------|
b--------------------------------------------|
g-7-7----------------------------------------|
d-7-7---5-5--3--333-3-3-3-3------------------|
a-5-5---5-5--3--333-3-3-3-3------------------|
e--------3-3--1--111-1-1-1-1-----------------|


E------------------------------------------------------------------------------|
b------------------------------------------------------------------------------|
g-5--5555-5-5---7--7777-7-7---9--9999-9-9--------------------------------------|
d-5--5555-5-5---7--7777-7-7---9--9999-9-9---3-3-3-333-3-3-3-333----------------|
a-3--3333-3-3---5--5555-5-5---7--7777-7-7---3-3-3-333-3-3-3-333----------------|
e---------------------------------------------------------1-1-1-111-1-1-1-111--|
                                                                                         
                             x2


E----------------------------------------------------------------------------------|
b---------------------------------------------------------------------11b-11b-10b--|
g-----10b10p9p8-10b10p9p8-10b10p9p8-10b10p9p8--------------------------------------|
d----------------------------------------------------------------------------------|
a----------------------------------------------------------------------------------|
e----------------------------------------------------------------------------------|

Let last chord ring

E------x-------x----x-x---x-x----------------------------|
b------x-------x----x-x---x-x----------------------------|
g-9-9-x-9-9-x-9-x-x-9-x-x-9------------------------------|
d-9-9-x-9-9-x-9-x-x-9-x-x-9------------------------------|
a-7-7-x-7-7-x-7-x-x-7-x-x-7------------------------------|
e------x-------x----x-x----x-x---------------------------|

Repeat Intro/Chorus twice

Outro:

E------x-------x------x--------------------x------x----x-------------------|
b------x-------x------x--------------------x------x----x-------------------|
g------x-------x------x--------------------x------x----x-------------------|
d-7-7-x-7-7-x-7-7-x-7-7-5--5--7-7-x-7-7-x-7-x-777-7-7----------------------|
a-7-7-x-7-7-x-7-7-x-7-7-5--5--7-7-x-7-7-x-7-x-777-7-7----------------------|
e-5-5-x-5-5-x-5-5-x-5-5-3--3--5-5-x-5-5-x-5-x-555-5-5----------------------|

Let last chord ring till song ends
Tap to rate this tab
 
# A B C D E F G H I J K L M N O P Q R S T U V W X Y Z