Song name
# A B C D E F G H I J K L M N O P Q R S T U V W X Y Z

Never Heard Of It - Build Me Up tab

-----------------------------------------------------------------------------
			     NHOI- BUILD ME UP
-----------------------------------------------------------------------------
Tabbed by: Late_Again (from Poland!!)
Email: beluska@interia.pl
This is one of my favorite NHOI's song. I hope you like it!

Intro:
0:15-0:18
e|---------------------------------------------------------------|
B|17--15--16----17--15--14--17--14--12--12-----------------------|
G|---------------------------------------------------------------|
D|---------------------------------------------------------------|
A|---------------------------------------------------------------|
E|---------------------------------------------------------------|

0:22-0:36
e|---------------------------------------------------------------|
B|---------------------------------------------------------------|
G|--------4---6--------------------------------------------------|
D|-----6--4---6---8----------------------------------------------|
A|-----6--2---4---8----------------------------------------------|
E|-----4----------6----------------------------------------------|

0:37-0:41
e|---------------------------------------------------------------|
B|---------------------------------------------------------------|
G|---------4------8-7-6-4----------------------------------------|
D|-----6---4----8-8-7-6-4----------------------------------------|
A|-----6---2----8-6-5-4-2----------------------------------------|
E|-----4--------6------------------------------------------------|

0:42-0:51            0:51-0:57  0:57-1:03
e|------------------|----------|---------------------------------|
B|------------------|----------|---------------------------------|
G|-------4---6---8--|--4-6-8---|------4---6---8------------------|
D|----6--4---6---8--|--4-6-8---|--6---4---6---8------------------|   
A|----6--2---4---6--|--2-4-6---|--6---2---4---6------------------|
E|----4-------------|----------|--4------------------------------|

1:03-1:21           1:21-1:23          1:23-1:32
e|-----------------|------------------|--------------------------|
B|-----------------|------------------|--------------------------|
G|-------6---4-----|---8-7-6-4--------|---4----------------------|
D|---8---6---4---6-|-6-8-7-6-4--------|---4----------------------|
A|---8---4---2---6-|-6-6-5-4-2--------|---2----------------------|
E|---6-----------4-|-8----------------|--------------------------|

1:32-1:38    1:38-1:44
e|----------|----------------------------------------------------|
B|----------|----------------------------------------------------|
G|--4-6-8---|------4---6---8-------------------------------------|
D|--4-6-8---|--6---4---6---8-------------------------------------|   
A|--2-4-6---|--6---2---4---6-------------------------------------|
E|----------|--4-------------------------------------------------|

1:44-2:03              2:03-til the end
e|-------------------|-------------------------------------------|
B|-------------------|-------------------------------------------|
G|-------6---4-------|---4--6--7--8------------------------------|
D|---8---6---4---6---|---4--6--7--8--8---------------------------|
A|---8---4---2---6---|---2--4--5--6--8---------------------------|
E|---6-----------4---|---------------6---------------------------|
Tap to rate this tab
# A B C D E F G H I J K L M N O P Q R S T U V W X Y Z