Song name
# A B C D E F G H I J K L M N O P Q R S T U V W X Y Z

Never Means Maybe - We Go Down Fighting tab

www.myspace.com/nevermeansmaybe (not sure what label but they are on scuzz and kerrang etc)


Now played in drop C, recording = drop D

~ = ring out note
h= hammer on
p= pull off
* = harmonic
... = palm muted
b = bend


intro/verse riff:

e|-----------------------------------------------|
B|-----------------------------------------------|
G|-----------------------------------------------|
D|-----------------------------------------------|
A|----787--3-5-78-----787--10-8-78---------------|
D|-00----00-0-0----00----00--0-0-----------------|
   ..    .. . .    ..    ..  . .

e|-----------------------------------------------|
B|-----------------------------------------------|
G|-----------------------------------------------|
D|-------------------------10-8p0--8-7p0---------|
A|----787--3-5-78-----787----------------10*-----|
D|-00----00-0-0----00----00----------------------|
   ..    .. . .    ..    ..

e|-----------------------------------------------|
B|-----------------------------------------------|
G|-----------------------------------------------|
D|-----------------------------------------------|
A|----787--3-5-78-----787--10-8-78---------------|
D|-00----00-0-0----00----00--0-0-----------------|
   ..    .. . .    ..    ..  . .

e|-----------------------------------------------|
B|-----------------------------------------------|
G|-----------------------------------------------|
D|-----------------------------------------------|
A|----787--3-5-7---------------------------------|
D|-00----00-0-0--88888---111----00---00----------|
   ..    .. . .          ...    ..   ..


verse cont:

e|----------------------------------------------------------|
B|----------------------------------------------------------|
G|---10h9h10h9---10h9h10h9-----10h9h10h9----12-10-9h10h9h10-|
D|----------------------------------------------------------|
A|----------------------------------------------------------|
D|-0-----------0----------00000----------00-----------------|
   .           .          .....          ..

'say this means something to you'
e|---------------------------------------------------------------------|
B|---------------------------------------------------------------------|
G|-----7~ --7h9--10---9---10--12-----7~ --10-9-7-9----10---9---10--12--|
D|---------------8----8---8---8-----------------------8----8---8---8---|
A|---------------8----8---8---8-----------------------8----8---8---8---|
D|---------------8----8---8---8-----------------------8----8---8---8---|
                 x6   x2  x2  x2  (all downward strumming)


chorus
e|-------------------------------------------------------------------------|
B|-------------------------------------------------------------------------|
G|----10h9h10h9---10h9h10h9-------10h9h10h9----12-10-9----10---9---10--12--|
D|--------------------------------------------------------8----8---8---8---|
A|----8-h7h8-h7---8-h7h8-h7-------8-h7h8-h7----10-8--7----8----8---8---8---|
D|--0-----------0-----------00000-----------00------------8----8---8---8---|
                                                          x6   x2  x2  x2

back to 1st riff:
e|-----------------------------------------------|
B|-----------------------------------------------|
G|-----------------------------------------------|
D|-----------------------------------------------|
A|----787--3-5-78-----787--10-8-78---------------|
D|-00----00-0-0----00----00--0-0-----------------|

e|-----------------------------------------------------|
B|-----------------------------------------------------|
G|---------------------------12~ -10~ -----------------|
D|---------------------------10~ -8~ ------------------|
A|----787--3-5-78-----787----10~ -8~ ------------------|
D|-00----00-0-0----00----00--10~ -8~ ------------------|


etc... sequence ends on:
e|---------------------------------------------------------------------------|
B|---------------------------------------------------------------------------|
G|---------------------------------------------------------------------------|
D|---------------------------------------------------------------------------|
A|----787--3-5-7--------------------------------------------------b7*--------|
D|-00----00-0-0--88888---111----00000-0-00000-0-0-8888-8-8-7777-7------------|

back to: 'say this means something to you' + chorus

breakdown:

1ce on bass then 1ce 1guitar + bass
e|------------------------------------------------------------------------|
B|------------------------------------------------------------------------|
G|------------------------------------------------------------------------|
D|------------------------------------------------------------------------|
A|------------------------------------------------------------------------|
D|--87-078-087-078--087-078--087-078---0-8-10-----------------------------|

e|---------------------------------------------|
B|---------------------------------------------|
G|---------------------------------------------|
D|-----78-----78------78-----78-8-10--[10-12]--|  x2 (brackets notes on 2nd run through 
weird time signature)
A|---7------7-------7------7-------------------|
D|--8-----08------08-----08--------------------|

then goes heavy:
e|------------------------------------------------------------------------|
B|-------------------------------------------------------------9--9--9----|
G|--------10-9------------------------(other fill>>>)--------12-12-12-12--|
D|--87-0-------0---(x3)--0-0-0-0------------------------------------------|
A|--87-0--8--7-0---------0-0-0-0------------------------------------------|
D|--87-0-------0---------0-0-0-0------------------------------------------|
                    'take me to the edge'

solo:
e|------------------------------------------------------------------------------------|
B|------------------------------------------------------------------------------------|
G|-----7--795--573--352-35----10-9--7-9-12-10---9-10-9-7------9-10-9--10--12----------|
D|------------------------------------------------------------------------------------|
A|------------------------------------------------------------------------------------|
D|------------------------------------------------------------------------------------|

e|-----------------------------------------------------------------------------------|
B|-----------------20----------------------------------------------------------------|
G|-----22-21--19-21--21----21-22-21-19----19-21-17-----15-15-15-15---17-17-17-17-----|
D|-----------------------------------------------------------------------------------|
A|-----------------------------------------------------------------------------------|
D|-----------------------------------------------------------------------------------|
(strumming)


e|--13-12-10-(x4)--15-13-12-(x4)--17-15-13-(x4)----10-(x8)-12-(x4)--10-10-12-10----------------|
B|---------------------------------------------------------------------------------------------|
G|---------------------------------------------------------------------------------------------|
D|---------------------------------------------------------------------------------------------|
A|---------------------------------------------------------------------------------------------|
D|---------------------------------------------------------------------------------------------|
Tap to rate this tab
# A B C D E F G H I J K L M N O P Q R S T U V W X Y Z