Guitaretab - guitar tabs
Song name
# A B C D E F G H I J K L M N O P Q R S T U V W X Y Z

Never Mind - Street Of Regret tab

hi guys this is my bands latest and first song hope you enjoy it it uses standard 
tuning and it's easy listen to the song for the strumming it will be on youtube soon.

           riff 1

e||-----------------------||
B||-----------------------||
G||------------7-5-4-7-5-4||
D||---5--5-7-5------------||
A||--7--------------------||
E||-5---------------------||

           riff 2

e||--------------------------------------------------------------------------||
B||--------------------------------------------------------------------------||
G||--------------------------------------------------------------------------||
D||-------------------------------------------------------------------3-5-3--||
A||---------3-0-3-5-3---------3-5-----3-----5---3-5-3-------3-----3-5-------5||
E||-3-5-3-5-----------5-3-3-5-----3-5---3-5---5-------5-3-5---3-5------------||

           riff 3
[ Tab from: http://www.guitaretab.com/n/never-mind/180697.html ]
e||------------------------------------------------------------------------||
B||------------------------------------------------------------------------||
G||------------------------------------------------------------------------||
D||-----------------------3-5-3-----------------------------------5-5-8-7-5||
A||-----3-5-3---------3-5-------5-3-----3-----------3-5-3---5-7-8----------||
E||-3-5-------5-3-3-5---------------3-5---5-3-1-3-5-------3----------------||


play order 

riff 1
riff 2
riff 1
riff 3
riff 1

lyrics

People talk about the things they did, things they did 
People talk about the things they did, things they did

Some guy in the streets he told me what hed done
He said to me what he did in the streets
He robbed an old lady on the street of happiness
Of happiness

People talk about the things they did, things they did 
People talk about the things they did, things they did

A woman that has been robbed
She lost her love her children and such
Now she is afraid
That they will come back for her
So may it be it is a tragedy

People talk about the things they did, things they did 
People talk about the things they did, things they did

http://artists.ultimate-guitar.com/nevermind/
Street Of Regret chords by Never Mind