Song name
# A B C D E F G H I J K L M N O P Q R S T U V W X Y Z

Never The Strangers - Moving Closer tab

Follow me on twitter: https://twitter.com/#!/andreatuason
Intro:
Listen to the song to get the tempo!=))               
|-------3----2----0--------3----2----0----|
|-------3----3----3--------3----3----3----|
|-----------------------------------------| 2x
|-----------------------------------------|
|-----2------3----3------2------3----3----|
|---3------------------0------------------|

Verse1:
 G        C9       Em7           C9
When you smile, everything's in place 
 G              C9       Em7         C9
I've waited so long, can make no mistake 
 G    C9  Em7            C9
All I am reaching out to you 
 G           C9    Em7           C9
I can't be scared, got to make a move 

Refrain1:
 D                   C9
While we're young, come away with me 
 D                    C9
Keep me close and don't let go 

Chorus:
 C9      D      G       D
Inch by inch, we're moving closer
 C9      D      G       D
Feels like a fairytale ending
 C9      D      G       D 
Take my heart, this is the moment
 C9      D      G       D
I'm moving closer to you 
 C9      D      G
I'm moving closer to you 

|-------3----2----0--------3----2----0----|
|-------3----3----3--------3----3----3----|
|-----------------------------------------| (once)
|-----------------------------------------|
|-----2------3----3------2------3----3----|
|---3------------------0------------------|

Verse2:
 G        C9       Em7           C9
Who'd have thought that I'd breathe the air 
 G        C9       Em7           C9
Spinning 'round your atmosphere 

Refrain2:
 D                   C9
I'll hold my breath, falling into you 
 D                   C9
Break my fall and don't let go 

Chorus (2x):
 C9      D      G       D
Inch by inch, we're moving closer
 C9      D      G       D
Feels like a fairytale ending 
 C9      D      G       D
Take my heart, this is the moment 
 C9      D      G
I'm moving closer to you 
Tap to rate this tab
# A B C D E F G H I J K L M N O P Q R S T U V W X Y Z