Song name
# A B C D E F G H I J K L M N O P Q R S T U V W X Y Z

Never Works Out - Addiction tab

Artist: Addiction
Album:  Addiction
Song:   Never Works out
Tabbed by:  David Selvidge

This is my first tab so bare with me.  This song is from my band
and we are not sure if it will stay like it is, so there will
probly be alot of modificayions to it.
Drop D tuning from low to high (DADGBE)
Acoustic Guitar
 riff 1  x4            riff 2  x4
E----------------------|----------------------|
B----------------------|----------------------|
G----------------------|----------------------|
D--9--9-9-9------------|---------5--5-5-5-----|
A--7--7-7-7------------|---------3--3-3-3-----|
D--7--7-7-7------------|---------3--3-3-3-----|
   D  U D U                      D  D U D
(D= down stroke, U=upstroke)

  Riff 3  x4            riff 4  x8

E----------------------|----------------------|
B----------------------|----------------------|
G----------------------|----------------------|
D--9--9-9-9------------|---------5--5-5-5-----|
A--7--7-7-7------------|---------3--3-3-3-----|
D--7--7-7-7------------|---------3--3-3-3-----|
   D  U D U                      D  U D U

 Chorus
 Riff 5                                  All of Riff 5? times
E-----------------------------------------------------------------|
B-----------------------------------------------------------------|
G-----------------------------------------------------------------|
D--3--3-3-3-/-5--5-5-5-/-7--7-7-7-/-9--9-9-/11--11-11-11----------|
A--1--1-1-1-/-3--3-3-3-/-5--5-5-5-/-7--7-7-/-9---9--9--9----------|
D--1--1-1-1-/-3--3-3-3-/-5--5-5-5-/-7--7-7-/-9---9--9--9----------|
   D  D U D   D  D U D   D  D U D   D  D U D D   D  U  D


Electric Guitar light distortion until Chorus and thengo into heavy
Distortion.Acoustic guitar should always be herd overthe Electric
Guitar.
   Riff 1    x4        Riff 2    x4
E-------------------|-----------------------|
B-------------------|-----------------------|
G-------------------|-----------------------|
D--9--9-9-9---------|--5--5-5-5-------------|
A-------------------|-----------------------|
D-------------------|-----------------------|


 Riff 3   x4         Riff 4    x8
E-------------------|-----------------------|
B-------------------|-----------------------|
G-------------------|-----------------------|
D--9--9-9-9---------|--5--5-5-5-------------|
A-------------------|-----------------------|
D-------------------|-----------------------|

  Chorus:Heavy distortion;low volume
  Riff 5                         play chorus riff ? times
E--------------------------------------------------|
B--------------------------------------------------|
G--------------------------------------------------|
D--5--5-5-5-/-7--7-7-7-/-9--9-9-9-/-11--11-11-11---|
A--5--5-5-5-/-7--7-7-7-/-9--9-9-9-/-11--11-11-11---|
D--5--5-5-5-/-7--7-7-7-/-9--9-9-9-/-11--11-11-11---|
Tap to rate this tab
# A B C D E F G H I J K L M N O P Q R S T U V W X Y Z