Song name
# A B C D E F G H I J K L M N O P Q R S T U V W X Y Z

Neverending White Lights - From What I Once Was tab

-------------------------------------------------------------------------------
		From What I Once Was - Neverending White Lights
-------------------------------------------------------------------------------
Tabbed by: the_furk
Email:the_furk@hotmail.com

Tuning: Standard

This is piano transcribed into guitar parts... I think its pretty darn close.

Intro/Chorus

e|---------------------------------------------------------------------------|
B|----7--5-------7--5--------------------------------------------------------|
G|-4--------4----------4-4-5-7--5-----7--5-----------------------------------|
D|---------------------------------5--------5--------------------------------|
A|---------------------------------------------------------------------------|
E|---------------------------------------------------------------------------|

Verses

e|-----------------------|
B|-8~---7~---5~---8~-----|
G|-9~---7~---5~---9~-----|
D|-9~---7~---5~---9~-----|
A|-7~---5~---3~---7~-----|
E|-----------------------|

e|---------------------------------------------------------------------------|
B|-8-------8----7-------7----5-------5-------5-------------------------------|
G|-9-------9----7-------7----5-------5-------5-------------------------------|
D|-9-----9-9----7-----7-7----5-----5-5-----5-5-------------------------------|
A|-7---7---7----5---5---5----3---3---3---3---3-------------------------------|
E|---7------------5------------3-------3-------------------------------------|


| /  slide up
| \  slide down
| h  hammer-on
| p  pull-off
| ~  vibrato
| +  harmonic
| x  Mute note
===============================================================================
Tap to rate this tab
# A B C D E F G H I J K L M N O P Q R S T U V W X Y Z