Nevermore - I Voyager tab

                  Nevermore - I Voyager Solo

D#|14p11----------------------------------------11-14p11-11----------|
A#|------11----------------------------------11-------------11-------|
F#|---------11----------------------------11-------------------11----|
C#|------------13----------------------13-------------------------13-|
G#|------------------------------------------------------------------|
D#|---------------14-12-11----11-12-14-------------------------------|
A#|------------------------14----------------------------------------|

D#|------------------------------11-13p9------------------------------|
A#|---------------------------11---------9----------------------------|
F#|------------------------11--------------10-------------------------|
C#|---------------------13--------------------11----------------------|
G#|-------------------------------------------------------------------|
D#|14-12-11----11-12-14--------------------------13-11----------11-13-|
A#|---------14-----------------------------------------14-12-14-------|

D#|--------9-11p7------------------------------7-15p11-------------------|
A#|------9--------7--------------------------7---------11----------------|
F#|---10------------8----------------------8--------------11-------------|
C#|11-----------------9------------------9-------------------13----------|
G#|----------------------------------------------------------------------|
D#|---------------------11-9-7----7-9-11------------------------14-12-11-|
A#|----------------------------10----------------------------------------|

D#|---------------------11-18p14----------------------------------------14-|
A#|------------------11----------14----------------------------------14----|
F#|---------------11----------------15----------------------------15-------|
C#|------------13----------------------16----------------------16----------|
G#|------------------------------------------------------------------------|
D#|---11-12-14----------------------------18-16----------16-18-------------|
A#|14-------------------------------------------19-17-19-------------------|

D#|21p16----------------------------------------16-19p14----------------|
A#|------17----------------------------------17----------14-------------|
F#|---------18----------------------------18----------------15----------|
C#|------------18----------------------18----------------------16-------|
G#|---------------16-13----------13-16----------------------------------|
D#|---------------------16-14-16----------------------------------18-16-|
A#|---------------------------------------------------------------------|
                                                              end of solo
|------------------------14----------------------------------|17(Hold)--|
|---------------------14-------------------------------------|----------|
|------------------15----------------------------------------|----------|
|---------------16----------(Play this entire section twice)-|----------|
|------------------------------------------------------------|----------|
|---------16-18----------------------------------------------|----------|
|19-17-19----------------------------------------------------|----------|
Tap to rate this tab
 
# A B C D E F G H I J K L M N O P Q R S T U V W X Y Z