Guitaretab - guitar tabs
Song name
# A B C D E F G H I J K L M N O P Q R S T U V W X Y Z

Nevermore - The Sorrowed Man tab

#----------------------------------PLEASE NOTE---------------------------------#
#This file is the author's own work and represents their interpretation of the #
#song. You may only use this file for private study, scholarship, or research. #
#------------------------------------------------------------------------------#

THE SORROWED MAN
As recorded by Nevermore
(From the 1996 EP IN MEMORY)

Transcribed by Russ Elton (webmaster@abysslord.com)
	


Arranged by Russ Elton (webmaster@abysslord.com), Jordan Baker (sansamppsa1@hotmail.com)

Gtr I (Eb Ab Db Gb Bb Eb) - 'Clean Guitar'
Gtr II (Eb Ab Db Gb Bb Eb) - 'Clean Guitar'
Gtr III (Eb Ab Db Gb Bb Eb) - 'Clean Guitar'
Gtr IV (Eb Ab Db Gb Bb Eb) - 'Lead Guitar'

 Intro Guitar Solo
  Q=112
  C                                    C/B      Am      N.C.
 4/4
  Gtr IV
                                        ~~~~~~~~~~~~~
   E     +E       +Q     +E   Q    E    H        +E   Q    +E
|------------------------------------|-------------------------|
|-15b17r(15)b17==(15)---(15)-15---15-|-15-------(15)-15r==(15)-|
|------------------------------------|-------------------------|
|------------------------------------|-------------------------|
|------------------------------------|-------------------------|
|------------------------------------|-------------------------|
|
| Gtr I
|  E      E        E  E   E   E E  E    E E E E   E   E E   E
|------------------0------------0----|------0------------------|
|---------1-----------1-------1----1-|----1---1-------1--------|
|--0----------------------0----------|--4---------2------------|
|------------------------------------|------------------5---4--|
|------------------------------------|-------------------------|
|------------------------------------|-------------------------|


  Em                     N.C.  G         G/F#
         ~~~~~~~~~~~~~~~~~~~~~~~~~~~~~~~~~~~~~
   S  S  Q.      +H              H        +Q.      E
|----------------------------|-----------------------|
|-12h15-12------(12)---------|-----------------------|
|----------------------------|-/12-------(12)-----11-|
|----------------------------|-----------------------|
|----------------------------|-----------------------|
|----------------------------|-----------------------|
|
|  E     E  E E   E  E E S S     E E E E   E  E E  E
|-----------------0----------|-----------------------|
|-----------0--------0-------|-------0----------0----|
|--------0----0--------0-----|-----0---0------0----0-|
|--2---------------------0-2-|--/5---------4---------|
|----------------------------|-----------------------|
|----------------------------|-----------------------|


  C                  C/B      Am    N.C.
   ~~~~~~~~~~~~~~~~~~~~~
   W                  H        Q.      S     +S
|------------------|-----------------------------|
|------------------|-----------------------------|
|-12---------------|-11--------------------------|
|------------------|----------12------12b14r(12)-|
|------------------|-----------------------------|
|------------------|-----------------------------|
|
|  E E E E E E E E    E E E E  E  E E  E
|------0-------0---|------0----------------------|
|----1---1---1---1-|----1---1-----1--------------|
|--0-------0-------|--4--------2-----------------|
|------------------|----------------5--4---------|
|------------------|-----------------------------|
|------------------|-----------------------------|


  Em                N.C.   G             G/F#
   ~~~~~~~~~~~~~             ~~~~~~~~~~~~~~~~~~
   H        +Q.      E       Q      Q     +Q.       E
|------------------------|------------------------------|
|------------------------|------------------------------|
|------------------------|-------------------------16---|
|------------------------|-[12]---[12]---(12)/----------|
|-14-------(14)-----10---|------------------------------|
|------------------------|------------------------------|
|
|  E E E E   E  E E  S S     E  E   E  E   E   E E  E
|------------0-----------|------------------------------|
|------0--------0--------|----------0------------0------|
|----0---0--------0------|------0------0-------0----0---|
|--2-----------------0-2-|--/5-------------4------------|
|------------------------|------------------------------|
|------------------------|------------------------------|


  Am                          N.C.
                        ~~~~~~~~~~~~~~~~~
   Q.      +S      +S   H            +E   E  +S   S  +E   E.    E.      E
|-19------(19)b20r(19)-17---------|-(17)-20-(20)-20-(20)-20----20b22---20-|
|---------------------------------|---------------------------------------|
|---------------------------------|---------------------------------------|
|---------------------------------|---------------------------------------|
|---------------------------------|---------------------------------------|
|---------------------------------|---------------------------------------|
|
|  E  E E   E           E E E S S     E   E   E       E   E  E       E  E
|-------0-------------------0-----|-----------0----------------------0----|
|-----1-----1-------------1-------|-------4-----------4------4----------4-|
|--2--------------------2-----1h2-|--/5-------------------5---------------|
|---------------------------------|---------------------------------------|
|---------------------------------|---------------------------------------|
|---------------------------------|---------------------------------------|


  Em7                                 E
               ~~~~~~~~~~~~~~~~~
      |--3--|
   E  S  S  S  E.    +S   E  Q.        E  +E      +E   E  E  E  E  E
|-19h20p19p17-19----(19)-19-17------|-16-(16)b17r(16)-13-12------------|
|-----------------------------------|-----------------------15-13-15---|
|-----------------------------------|----------------------------------|
|-----------------------------------|----------------------------------|
|-----------------------------------|----------------------------------|
|-----------------------------------|----------------------------------|
|
|  E  E        E  E       E  E  E E    E   E       E   E  E  E  E  E
|--------------0----------------0---|--------------0-------------------|
|-----3-----------3----------3----3-|------0-----------0--------0------|
|--4----------------------4---------|-\1---------------------1-----1---|
|-----------------------------------|---------------------2------------|
|-----------------------------------|----------------------------------|
|-----------------------------------|----------------------------------|


  Am                                     N.C.
   E     +E       +Q     +E   E  +S   E.        H        +Q.      S  S
|--------------------------------------------|-------------------------|
|-15b17r(15)b17==(15)---(15)-15-(15)-15------|-15-------(15)r====15-13-|
|--------------------------------------------|-------------------------|
|--------------------------------------------|-------------------------|
|--------------------------------------------|-------------------------|
|--------------------------------------------|-------------------------|
|
|  E      E        E  E   E   E   E      S S    E E E E   E  E E  E
|------------------0--------------0----------|------0----------0-------|
|---------1-----------1-------1--------------|----4---4------4----4----|
|--2----------------------2--------------1h2-|-/5---------5------------|
|--------------------------------------------|-------------------------|
|--------------------------------------------|-------------------------|
|--------------------------------------------|-------------------------|


  Em7                         E
   ~~~~~~~~~~~~~               ~~
   H        +E   S  S  E  E    H        +E   E  E  E
|---------------------------|------------------------||
|-12-------(12)-12-12-12----|---------------------12-||
|------------------------14-|-13-------(13)-13-14----||
|---------------------------|------------------------||
|---------------------------|------------------------||
|---------------------------|------------------------||
|
|  E E E E   E   E     E  E    E E E E   E   E  E  E
|------0---------------0----|------0-----------------||
|----3---3-------3--------3-|----0---0----------0----||
|--4---------4--------------|-\1-------------1-----1-||
|---------------------------|------------2-----------||
|---------------------------|------------------------||
|---------------------------|------------------------||


 Verse
  C                  C/B        Am     N.C.
   ~~~~~~~~~~~~~~~~~~~~~~~~~~~~~~~~~~
   W                  +H         +Q.      S  S
|------------------|---------------------------|
|-13---------------|-(13)-------(13)-----12h13-|
|------------------|---------------------------|
|------------------|---------------------------|
|------------------|---------------------------|
|------------------|---------------------------|
|
|  E E E E E E E E     E  E E E   E  E E  E
|------0-------0---|--------0------------------|
|----1---1---1---1-|------1---1------1---------|
|--0-------0-------|---4----------2------------|
|------------------|-------------------5--4----|
|------------------|---------------------------|
|------------------|---------------------------|


  Em             N.C.  G          G/F#
   >
   ~~~~~~~~~~~~~~~~~~~~~~~~~
   W                    +W
|--------------------|----------------------|
|-12-----------------|-(12)-----------------|
|--------------------|----------------------|
|--------------------|----------------------|
|--------------------|----------------------|
|--------------------|----------------------|
|
|  E E E E E E E S S     E  E E E E E E E
|----------0---------|----------------------|
|------0-----0-------|--------0-------0-----|
|----0---0-----0-----|------0---0---0---0---|
|--2-------------0-2-|--/5--------4---------|
|--------------------|----------------------|
|--------------------|----------------------|


  C                 C/B     Am  N.C.  Em            N.C.  G        G/F#
  Gtr I
  E E E E E E E E   E E E E E E E E   E E E E E E E S S    E E E E E E E E
|-----0-------0---|-----0-----------|---------0---------|------------------||
|---1---1---1---1-|---1---1---1-----|-----0-----0-------|------0-------0---||
|-0-------0-------|-4-------2-------|---0---0-----0-----|----0---0---0---0-||
|-----------------|-------------5-4-|-2-------------0-2-|-/5-------4-------||
|-----------------|-----------------|-------------------|------------------||
|-----------------|-----------------|-------------------|------------------||


   Pre-Chorus
    $
    $$
    Am            N.C.
    E E E E E E E S S    E E E E E E E E
||------0-------0-----|------0-------0---|
||o---1---1---1-------|----4---4---4---4-|
||--2-------2-----1h2-|-/5-------5-------|
||--------------------|------------------|
||o-------------------|------------------|
||--------------------|------------------|


  Em7               E
  E E E E E E E E    E E E E E E E E
|-----0-------0---|------0------------||
|---3---3---3---3-|----0---0-----0---o||
|-4-------4-------|-\1---------1---1--||
|-----------------|----------2--------||
|-----------------|------------------o||
|-----------------|-------------------||


   Chorus
                                                                    To Coda
                                                                    To Coda
    C                 C/B     Am  N.C.  Em            N.C.  G        G/F#
    E E E E E E E E   E E E E E E E E   E E E E E E E S S    E E E E E E E E
||------0-------0---|-----0-----------|---------0---------|-------------------||
||o---1---1---1---1-|---1---1---1-----|-----0-----0-------|------0-------0---o||
||--0-------0-------|-4-------2-------|---0---0-----0-----|----0---0---0---0--||
||------------------|-------------5-4-|-2-------------0-2-|-/5-------4--------||
||o-----------------|-----------------|-------------------|------------------o||
||------------------|-----------------|-------------------|-------------------||


    Am            N.C.                     Em7
    E E E E E E E S S    E E E E E E E E   E E E E E E E E
||------0-------0-----|------0-------0---|-----0-------0---|
||o---1---1---1-------|----4---4---4---4-|---3---3---3---3-|
||--2-------2-----1h2-|-/5-------5-------|-4-------4-------|
||--------------------|------------------|-----------------|
||o-------------------|------------------|-----------------|
||--------------------|------------------|-----------------|


  1.                   2.
  E                    E/G#     N.C.
   E E E E E E E E      E E E E E E E E
|------0------------||------0------------||
|----0---0-----0---o||----0---0----------||
|-\1---------1---1--||-\1----------------||
|----------2--------||----------2-0------||
|------------------o||--------------3-2--||
|-------------------||-------------------||


 Bridge
  Am
  Gtrs II, III
  E  E  E E  H         E  E  E E  H
|--------------------|--------------------|
|--------------------|--------------------|
|----9--9-7--9-------|----9--9-7--9-------|
|---10-10-9-10-------|---10-10-9-10-------|
|--------------------|--------------------|
|--------------------|--------------------|
|
| Gtr I
| E  E  E E  E E E E   E  E  E E  E E E E
|--------------------|--------------------|
|---------0--1-------|---------0--1-------|
|-------2------2---2-|-------2------2---2-|
|----2-----------2---|----2-----------2---|
|-0------------------|-0------------------|
|--------------------|--------------------|


  F                     E
  E  E  E E  Q    Q      Q   Q   +E  E Q
|---------------------|--------------------|
|---------------------|--------------------|
|----9--9-7--9---10---|--9---7---(7)-5-4---|
|---10-10-9-10---12---|-10---9---(9)-7-6---|
|---------------------|--------------------|
|---------------------|--------------------|
|
| E  E  E E  E E  E E    E E E E  E  E E E
|---------------------|-----------0--------|
|------------1--------|--------------0---0-|
|---------2----2----2-|--------1-------1---|
|-------3---------3---|------2-------------|
|----3----------------|----2---------------|
|-1-------------------|--0-----------------|


  Am
  E  E  E E  H         E  E  E E  H
|--------------------|--------------------|
|--------------------|--------------------|
|----9--9-7--9-------|----9--9-7--9-------|
|---10-10-9-10-------|---10-10-9-10-------|
|--------------------|--------------------|
|--------------------|--------------------|
|
| E  E  E E  E E E E   E  E  E E  E E E E
|--------------------|--------------------|
|---------0--1-------|---------0--1-------|
|-------2------2---2-|-------2------2---2-|
|----2-----------2---|----2-----------2---|
|-0------------------|-0------------------|
|--------------------|--------------------|


  F                     E           N.C.      E
  E  E  E E  Q    Q      Q.     S S H          W
|---------------------|---------------------|-------||
|---------------------|---------------------|-------||
|----9--9-7--9---10---|--9------7p5-7-------|-------||
|---10-10-9-10---12---|-10------9p7-9-------|-------||
|---------------------|---------------------|-------||
|---------------------|---------------------|-------||
|
| E  E  E E  E E  E E    E  E E E   E E E E    W
|---------------------|---------------------|-------||
|------------1--------|-------0-------------|-------||
|---------2----2----2-|-----1---1-----------|-------||
|-------3---------3---|--2----------2-0-----|-/6----||
|----3----------------|-----------------3-2-|-/7----||
|-1-------------------|---------------------|-------||


   Verse
                                                               D.S. al Coda
    C                 C/B     Am  N.C.  Em            N.C.  G        G/F#
    Gtr I
    E E E E E E E E   E E E E E E E E   E E E E E E E S S    E E E E E E E E
||------0-------0---|-----0-----------|---------0---------|-------------------||
||o---1---1---1---1-|---1---1---1-----|-----0-----0-------|------0-------0---o||
||--0-------0-------|-4-------2-------|---0---0-----0-----|----0---0---0---0--||
||------------------|-------------5-4-|-2-------------0-2-|-/5-------4--------||
||o-----------------|-----------------|-------------------|------------------o||
||------------------|-----------------|-------------------|-------------------||


 2nd Chorus Ending
  &
  Am            N.C.                     Em7               E
  E E E E E E E S S    E E E E E E E E   E E E E E E E E    E E E E E E E E
|-----0-------0-----|------0-------0---|-----0-------0---|------0-----------|
|---1---1---1-------|----4---4---4---4-|---3---3---3---3-|----0---0-----0---|
|-2-------2-----1h2-|-/5-------5-------|-4-------4-------|-\1---------1---1-|
|-------------------|------------------|-----------------|----------2-------|
|-------------------|------------------|-----------------|------------------|
|-------------------|------------------|-----------------|------------------|

[ Tab from: http://www.guitaretab.com/n/nevermore/41911.html ]
  Am            N.C.
  E E E E E E E S S    E E E E E E E E
|-----0-------0-----|------0-------0---|
|---1---1---1-------|----4---4---4---4-|
|-2-------2-----1h2-|-/5-------5-------|
|-------------------|------------------|
|-------------------|------------------|
|-------------------|------------------|


  Em7               E
  E E E E E E E E    E E E E H      +W
|-----0-------0---|------0--------|--------||
|---3---3---3---3-|----0---0------|--------||
|-4-------4-------|-\1------------|--------||
|-----------------|----------2----|-(2)----||
|-----------------|---------------|--------||
|-----------------|---------------|--------||


 Guitar Solo
  Dsus2                             Dm
  Gtr IV
                                                       ~~
   E      +Q.      +E   Q    S  S    Q.      +S   +S   H
|-22b24==(22)-----(22)-22---22-22-|-22------(22)r(22)-22-------|
|---------------------------------|----------------------------|
|---------------------------------|----------------------------|
|---------------------------------|----------------------------|
|---------------------------------|----------------------------|
|---------------------------------|----------------------------|
|
| Gtr I
|  E       E  E E   E   E E  E       E  E E   E        E E E E
|---------------------------------|----------------------------|
|-------------5---------5---------|--6--------6------------6-5-|
|----------7--------7--------7----|-------7--------------7-----|
|--0------------0---------0-------|-----0--------------0-------|
|---------------------------------|----------------------------|
|---------------------------------|----------------------------|


  Dsus2                          Dm
       ~~~~                           ~~~~~~~~~~~~
                       |--3--|
   E  +Q.      Q.      S  S  S    E  +Q.      +Q.      S  S
|-20-(20)-----18------18h20p18-|-17-(17)-----(17)-----17-17--|
|------------------------------|-----------------------------|
|------------------------------|-----------------------------|
|------------------------------|-----------------------------|
|------------------------------|-----------------------------|
|------------------------------|-----------------------------|
|
|  E   E  E E  E  E E  E          E   E  E E   E  E E  E
|------------------------------|-----------------------------|
|---------5-------5------------|--6--------6--------6--5-----|
|------7-------7-------7-------|---------7--------7----------|
|--0--------0-------0----------|------0--------0-------------|
|------------------------------|-----------------------------|
|------------------------------|-----------------------------|


  Dmaj7sus2                        Dm/maj7
                                               ~~~~~~~
   H            +E   S  +S  E  E    Q    S  S  E  +H
|--------------------------------|--------------------------|
|-20b22========(20)-20r(20)---18-|-17---17h18-18-(18)-------|
|--------------------------------|--------------------------|
|--------------------------------|--------------------------|
|--------------------------------|--------------------------|
|--------------------------------|--------------------------|
|
|  E     E E E   E   E      E  E    E E  E     E   E  E E E
|--------------------------------|--------------------------|
|----------5---------5-----------|--6----------6--------6-5-|
|--------6-------6-------------6-|-------6------------6-----|
|--0---------0--------------0----|----0------------0--------|
|--------------------------------|--------------------------|
|--------------------------------|--------------------------|


  Dsus2
                                                  ~~~~~~~~~~~~~~~
   |---3---|  |---3---|              |---3---|
   E  E    E  E  E    E  S  S  S  S  E  E    E    H     Q   +Q
|-17-16---15-13-16---15-13h15p13----13---------|--------------------|
|--------------------------------15----15------|-15----15--(15)\----|
|-------------------------------------------14-|--------------------|
|----------------------------------------------|--------------------|
|----------------------------------------------|--------------------|
|----------------------------------------------|--------------------|
|
|  E    E     E    E     E     E     E    E       W
|----------------------------------------------|--------------------|
|-------------5----------------5---------------|--6-----------------|
|-------7----------------7----------------7----|--------------------|
|--0---------------0-----------------0---------|--------------------|
|----------------------------------------------|--------------------|
|----------------------------------------------|--------------------|


  Dm7                             Bb/D
                                                        ~~~
   H            +E   Q    S  S     Q.         +S   +S   Q.      S  S
|-------------------------------|------------------------------------|
|-------------------------------|------------------------------------|
|-12b14========(12)-12---12-12r-|-12b14======(12)r(12)-12------12-12-|
|-------------------------------|------------------------------------|
|-------------------------------|------------------------------------|
|-------------------------------|------------------------------------|
|
|  E     E E E   E   E E  E        E     E E   E        E  E E  E
|----------8---------8----------|-^6-----------6-------------6-------|
|------------6---------6--------|-^6-----6--------------6-------6----|
|--------7-------7--------7-----|-^7-------7---------------7---------|
|--0----------------------------|-^0---------------------------------|
|-------------------------------|------------------------------------|
|-------------------------------|------------------------------------|


  Eb5/D                              Bbmaj11/D
                                                 ~~~~~~~~~
   Q        +Q     +E    E    E  E    E  +E      Q    +Q.      S  S
|----------------------------------|--------------------------------|
|----------------------------------|--------------------------------|
|-14b15====(14)---(14)r-15b17---15-|-14-(14)b15-14---(14)-----14-14-|
|----------------------------------|--------------------------------|
|----------------------------------|--------------------------------|
|----------------------------------|--------------------------------|
|
|  E     E   E  E   E    E    E  E    E   E      E E   E  E E  E
|------------6-----------6---------|-^5------------5--------5-------|
|---------------4-------------4----|-^4---4------------4-------4----|
|--------3----------3------------3-|-^3----------3--------3---------|
|--0-------------------------------|-^0-----------------------------|
|----------------------------------|--------------------------------|
|----------------------------------|--------------------------------|


  Dm7                        Bb/D
   ~~~~~~~~~~~~~~~~~~                              ~~~~~~~~~~~~~
   H.            +E   S  S    Q.         +S   +S   Q.      +E
|-17------------(17)-17-17-|-15b17======(15)r(15)-15------(15)\-|
|--------------------------|------------------------------------|
|--------------------------|------------------------------------|
|--------------------------|------------------------------------|
|--------------------------|------------------------------------|
|--------------------------|------------------------------------|
|
|  E  E E E E E   E   E       E     E E   E        E  E E   E
|-------8-----8------------|-^6-----------6-------------6-------|
|---------6-------6--------|-^6-----6--------------6--------6---|
|-----7-----7---------7----|-^7-------7---------------7---------|
|--0-----------------------|-^0---------------------------------|
|--------------------------|------------------------------------|
|--------------------------|------------------------------------|


  Eb5/D                            Bbmaj11/D
       |--3--|
    E  S  S  S  E  E  E  E  E  E    H.          +E    a   E
|-/15-13h15p13-11-13-11-------15-|---------------------------||
|-----------------------15-13----|-13b15=======(13)r(13)-13--||
|--------------------------------|---------------------------||
|--------------------------------|---------------------------||
|--------------------------------|---------------------------||
|--------------------------------|---------------------------||
|
|   E  E        E  E  E  E  E  E    W
|---------------6--------6-------|-^5------------------------||
|------------------4--------4----|-^4------------------------||
|------3--------------3--------3-|-^3------------------------||
|---0----------------------------|-^0------------------------||
|--------------------------------|---------------------------||
|--------------------------------|---------------------------||


 Verse
  C                  C/B        Am       N.C.
   W                  +H.            +E   E
|------------------|------------------------|
|------------------|---------------------12-|
|------------------|------------------------|
|-10---------------|-(10)-----------(10)----|
|------------------|------------------------|
|------------------|------------------------|
|
|  E E E E E E E E     E  E E E E E   E   E
|------0-------0---|--------0---------------|
|----1---1---1---1-|------1---1---1---------|
|--0-------0-------|---4--------2-----------|
|------------------|------------------5---4-|
|------------------|------------------------|
|------------------|------------------------|


  Em               N.C.  G          G/F#
   +W                     +W
|----------------------|--------------------|
|-(12)-----------------|-(12)---------------|
|----------------------|--------------------|
|----------------------|--------------------|
|----------------------|--------------------|
|----------------------|--------------------|
|
|   E  E E E E E E S S     E  E E E E E E E
|------------0---------|--------------------|
|--------0-----0-------|--------0-------0---|
|------0---0-----0-----|------0---0---0---0-|
|---2--------------0-2-|--/5--------4-------|
|----------------------|--------------------|
|----------------------|--------------------|


  C                    C/B     Am  N.C.
    >
   +W                  W
|--------------------|-----------------|
|-(12)---------------|-----------------|
|--------------------|-----------------|
|--------------------|-----------------|
|--------------------|-----------------|
|--------------------|-----------------|
|
|   E  E E E E E E E   E E E E E E E E
|--------0-------0---|-----0-----------|
|------1---1---1---1-|---1---1---1-----|
|---0--------0-------|-4-------2-------|
|--------------------|-------------5-4-|
|--------------------|-----------------|
|--------------------|-----------------|


                    D.S.S. al Dbl. Coda
  Em            N.C.  G        G/F#
  W                    W
|-------------------|---------------------||
|-------------------|---------------------||
|-------------------|---------------------||
|-------------------|---------------------||
|-------------------|---------------------||
|-------------------|---------------------||
|
| E E E E E E E S S    E E E E E E E E
|---------0---------|---------------------||
|-----0-----0-------|------0-------0------||
|---0---0-----0-----|----0---0---0---0----||
|-2-------------0-2-|-/5-------4----------||
|-------------------|---------------------||
|-------------------|---------------------||


 3rd Chorus Ending
  &&
  Am            N.C.                     Em7               E
  Gtr I
  E E E E E E E S S    E E E E E E E E   E E E E E E E E    E E E E E E E E
|-----0-------0-----|------0-------0---|-----0-------0---|------0-----------|
|---1---1---1-------|----4---4---4---4-|---3---3---3---3-|----0---0-----0---|
|-2-------2-----1h2-|-/5-------5-------|-4-------4-------|-\1---------1---1-|
|-------------------|------------------|-----------------|----------2-------|
|-------------------|------------------|-----------------|------------------|
|-------------------|------------------|-----------------|------------------|


  Am            N.C.
  E E E E E E E S S    E E E E E E E E
|-----0-------0-----|------0-------0---|
|---1---1---1-------|----4---4---4---4-|
|-2-------2-----1h2-|-/5-------5-------|
|-------------------|------------------|
|-------------------|------------------|
|-------------------|------------------|


  Em7               E
  E E E E E E E E    E E E E H      +W
|-----0-------0---|------0--------|--------||
|---3---3---3---3-|----0---0------|--------||
|-4-------4-------|-\1------------|--------||
|-----------------|----------2----|-(2)----||
|-----------------|---------------|--------||
|-----------------|---------------|--------||


 Outro
  B7                       Em7b5/Bb
  Gtr IV
   <
   ~~~~~~~~~~~~~~~~~~~~~~~~~~~~~~~~~~~~~~~~~~~~~~
   H          +H              W
|-------------------------|---------------------|
|-------------------------|---------------------|
|-10---------(10)---------|---9-----------------|
|-------------------------|---------------------|
|-------------------------|---------------------|
|-------------------------|---------------------|
|
| Gtr I
|  E  E  E E   E   E E  E     E E E  E E E  E E
|-------10--------10------|-^10-----10-----10-9-|
|----------9---------9----|-^-8-8------8--------|
|----10-------10-------10-|-^-9---9------9------|
|--9----------------------|-^-8-----------------|
|-------------------------|---------------------|
|-------------------------|---------------------|


  Bb7                Ebm7b5/Bb
 ~~~~~~~~~~~~~~~~~~~~~~~~
  +W                   W
|-------------------|------------------|
|-------------------|------------------|
|-(9)---------------|--8---------------|
|-------------------|------------------|
|-------------------|------------------|
|-------------------|------------------|
|
|  E  E E E E E E E    E E E E E E E E
|-------9-----9-----|-^9-----9-----9-8-|
|---------8-----8---|-^7-7-----7-------|
|-----9-----9-----9-|-^8---8-----8-----|
|--8----------------|-^7---------------|
|-------------------|------------------|
|-------------------|------------------|


                      H.=H
  A7                 Dm7b5/Ab
   ~~~~~~~~~~~~~~~~~~~~~~~~~~~~~~~~~~~~~
  +W                   W
|-------------------|------------------|
|-------------------|------------------|
|-(8)---------------|--7---------------|
|-------------------|------------------|
|-------------------|------------------|
|-------------------|------------------|
|
|  E  E E E E E E E    E E E E E E E E
|-------8-----8-----|-^8-----8-----8-7-|
|---------7-----7---|-^6-6-----6-------|
|-----8-----8-----8-|-^7---7-----7-----|
|--7----------------|-^6---------------|
|-------------------|------------------|
|-------------------|------------------|


                                         Q=80
  Ab7                C#m7b5/G
                                          >
 ~~~~~~~~~~~~~~~~~~~~~~~~~~~~~~~~~~~~~~~~~~~~
  +W                   W                 +W
|-------------------|------------------|--------*|
|-------------------|------------------|--------*|
|-(7)---------------|--6---------------|-(6)----*|
|-------------------|------------------|--------*|
|-------------------|------------------|--------*|
|-------------------|------------------|--------*|
|
|  E  E E E E E E E    E E E E E E E E   +W
|-------7-----7-----|-^7-----7-----7-6-|-(6)----*|
|---------6-----6---|-^5-5-----5-------|--------*|
|-----7-----7-----7-|-^6---6-----6-----|--------*|
|--6----------------|-^5---------------|--------*|
|-------------------|------------------|--------*|
|-------------------|------------------|--------*|



Duration Legend
---------------
W - whole; H - half; Q - quarter; E - 8th; S - 16th; T - 32nd; X - 64th; a - acciaccatura
+ - note tied to previous; . - note dotted; .. - note double dotted
Uncapitalized letters represent notes that are staccato (1/2 duration)
Irregular groupings are notated above the duration line
Duration letters will always appear directly above the note/fret number it represents the
duration for.  Duration letters with no fret number below them represent rests.  Multi-
bar rests are notated in the form Wxn, where n is the number of bars to rest for.  Low
melody durations appear below the staff

Tablature Legend
----------------
 h   - hammer-on
 p   - pull-off
 b   - bend
 pb  - pre-bend
 r   - bend release (if no number after the r, then release immediately)
 /\  - slide into or out of (from/to "nowhere")
 s   - legato slide
 S   - shift slide
 - natural harmonic
[n]  - artificial harmonic
n(n) - tapped harmonic
 ~   - vibrato
 tr  - trill
 T   - tap
 TP  - trem. picking
 PM  - palm muting
\n/  - tremolo bar dip; n = amount to dip
 \n  - tremolo bar down
 n/  - tremolo bar up
/n\  - tremolo bar inverted dip
 =   - hold bend; also acts as connecting device for hammers/pulls
 <> - volume swell (louder/softer)
 x   - on rhythm slash represents muted slash
 o   - on rhythm slash represents single note slash

Misc Legend
-----------
 |  - bar
||  - double bar
||o - repeat start
o|| - repeat end
*|  - double bar (ending)
 :  - bar (freetime)
 $  - Segno
 &  - Coda
Tempo markers -  = BPM(8/16=s8/s16), where s8 = swing 8ths, s16 = swing 16ths

Related for The Sorrowed Man tab