Song name
# A B C D E F G H I J K L M N O P Q R S T U V W X Y Z

Nevermore - The River Dragon Has Come tab

#----------------------------------PLEASE NOTE---------------------------------#
#This file is the author's own work and represents their interpretation of the #
#song. You may only use this file for private study, scholarship, or research. #
#------------------------------------------------------------------------------#

THE RIVER DRAGON HAS COME
As recorded by Nevermore
(From the 2000 Album DEAD HEART IN A DEAD WORLD)

Transcribed by John Grivas, The Foreverlorn, 'Nife[SpiritCrusher]
	

Words and Music by Jeff Loomis / Warrel Dane
Arranged by Jeff Loomis / Warrel Dane

Gtr I (Bb Eb Ab Db Gb Bb Eb) - 'Clean'
Gtr II (Bb Eb Ab Db Gb Bb Eb) - 'Rhythm I'
Gtr III (Bb Eb Ab Db Gb Bb Eb) - 'Rhythm II'
Gtr IV (Bb Eb Ab Db Gb Bb Eb) - 'Lead I'
Gtr V (Bb Eb Ab Db Gb Bb Eb) - 'Lead II'

 Intro
  Q=140
  N.C.
 4/4
  Gtr I
  E  E E E  H       +W            S  S E E  E E E  E E    S  S E E  E E E  E E
|--------0-------|-------------|---------0------0----0-|---------0------0----0-|
|------0---------|-------------|-------0------0--------|-------0------0--------|
|---16-----16----|-(16)--------|-14h16-----14-----12---|-12h14-----12-----11---|
|----------------|-------------|-----------------------|-----------------------|
|----------------|-------------|-----------------------|-----------------------|
|-0--------------|-------------|-----------------------|-----------------------|
|----------------|-------------|-----------------------|-----------------------|


  N.C.
  E E E Q  E E E   E E E E E E E E   E E E E E E E E
|-------0------0-|-----0-----0-----|-----0-----0-----|
|-----8------8---|---8-----8-----0-|---8-----8-----0-|
|-7h9------9-----|-9-----9-----9---|-7-----7-----7---|
|----------------|-----------------|-----------------|
|----------------|-----------------|-----------------|
|----------------|-----------------|-----------------|
|----------------|-----------------|-----------------|


  N.C.
  E E E E E E E E   E  E E E  H       +W
|-----0-----0---0-|--------0-------|-------------|
|---8-----8-------|------0---------|-------------|
|-5-----5-----7---|-7s16-----16----|-(16)--------|
|-----------------|----------------|-------------|
|-----------------|----------------|-------------|
|-----------------|----------------|-------------|
|-----------------|----------------|-------------|


   S  S E E  E E E  E E    S  S E E  E E E  E E
|---------0------0----0-|---------0------0----0--|
|-------0------0--------|-------0------0---------|
|-14h16-----14-----12---|-12h14-----12-----11----|
|-----------------------|------------------------|
|-----------------------|------------------------|
|-----------------------|------------------------|
|-----------------------|------------------------|


  N.C.
                                                       <
  E E E Q  E E E   E E E E E E E E   E E E E E E E E   E E E E E E E E
|-------0------0-|-----0-----0-----|-----0-----0-----|-----0-----0---0-|
|-----8------8---|---8-----8-----0-|---8-----8-----0-|---8-----8-------|
|-7h9------9-----|-9-----9-----9---|-7-----7-----7---|-5-----5-----5---|
|----------------|-----------------|-----------------|-----------------|
|----------------|-----------------|-----------------|-----------------|
|----------------|-----------------|-----------------|-----------------|
|----------------|-----------------|-----------------|-----------------|


   Bridge
    D5C5B5C5    B5C5  B5C5D5B5    C5B5  D5C5B5C5    B5C5  B5C5D5B5    F5
    Gtrs II, III
            PM                PM                PM                PM
    E E E E E E E E   E E E E E E E E   E E E E E E E E   E E E E E E Q
||------------------|-----------------|-----------------|------------------||
||------------------|-----------------|-----------------|------------------||
||o-----------------|-----------------|-----------------|-----------------o||
||------------------|-----------------|-----------------|------------------||
||o-5s3-2-3---3-2-3-|-2-3s5-2---2-3-2-|-5s3-2-3---3-2-3-|-2-3s5-2---2-8---o||
||--5s3-2-3---3-2-3-|-2-3s5-2---2-3-2-|-5s3-2-3---3-2-3-|-2-3s5-2---2-8----||
||--3s1-0-1-0-1-0-1-|-0-1s3-0-0-0-1-0-|-3s1-0-1-0-1-0-1-|-0-1s3-0-0-0-6----||


   Verse
    B5                                              C5
                                                    <
    PM----|                    PM--------|
    E. E. E Q  Q    W          S E E S S S E Q.     H    +H
||----------------|----------|--------------------|--------------||
||----------------|----------|--------------------|--------------||
||o---------------|----------|--------------------|-------------o||
||----------------|----------|--------------------|--------------||
||o---------2-----|----------|-------------2------|-3----(3)----o||
||----------2-----|----------|-------------2------|-3----(3)-----||
||--0--0--0-0-----|----------|-0-0-0-0-0-0-0------|-1----(1)-----||


   Interlude
    $
    B5        N.C.
    Gtr III
    PM----|    PM|       PM|       PM|     PM|  ~~~
    E. E. E E  S  S   E  S S    E  S S  E  S S  H
||---------------------------|------------------------|
||---------------------------|------------------------|
||o--------------------------|------------------------|
||------------10-10-[10]-9-9-|-[9]-7-7-[7]-5-5-[5]----|
||o---------2----------------|------------------------|
||----------2----------------|------------------------|
||--0--0--0-0----------------|------------------------|
|
|   Gtr II
|   PM----|    PM|       PM|       PM|     PM|  ~~~
|   E. E. E E  S  S   E  S S    E  S S  E  S S  H
||---------------------------|------------------------|
||---------------------------|------------------------|
||o--------------------------|------------------------|
||------------10-10--10--9-9-|--9--7-7--7--5-5--5-----|
||o---------2----------------|------------------------|
||----------2----------------|------------------------|
||--0--0--0-0----------------|------------------------|


  B5            N.C.
  PM--------|    PM|       PM|       PM|     PM|  ~~~
  S E E S S S E  S  S   E  S S    E  S S  E  S S  H
|------------------------------|-------------------------||
|------------------------------|-------------------------||
|------------------------------|------------------------o||
|------------------------------|-------------------------||
|-------------2-10-10--10--9-9-|--9--7-7--7--5-5--5-----o||
|-------------2----------------|-------------------------||
|-0-0-0-0-0-0-0----------------|-------------------------||
|
| PM--------|    PM|       PM|       PM|     PM|  ~~~
| S E E S S S E  S  S   E  S S    E  S S  E  S S  H
|------------------------------|-------------------------||
|------------------------------|-------------------------||
|------------------------------|------------------------o||
|------------------------------|-------------------------||
|-------------2-10-10-[10]-9-9-|-[9]-7-7-[7]-5-5-[5]----o||
|-------------2----------------|-------------------------||
|-0-0-0-0-0-0-0----------------|-------------------------||


 Pre-Chorus
  Q.=130
  C#5    D5C#5      D5C#5        D5C#N.C.
 12/8
  Gtrs II, III
     PM|        PM|          PM|
  Q  E E E E Q  E E E E   Q  E E E E E E E E E E
|-----------------------|------------------------|
|-----------------------|------------------------|
|-----------------------|------------------------|
|-----------------------|------------------------|
|-4------5s4-4------5s4-|-4------5s4-------------|
|-4------5s4-4------5s4-|-4------5s4-------2-----|
|-2--2-2-3s2-2--2-2-3s2-|-2--2-2-3s2-2-3-5---5-3-|


  C#5    D5C#5      D5    C5         E5 C5 E5
     PM|        PM|
  Q  E E E E Q  E E E E   Q  E E E E Q  Q  Q
|-----------------------|---------------------|
|-----------------------|---------------------|
|-----------------------|---------------------|
|-----------------------|---------------------|
|-4------5s4-4------5s4-|-3--3-3-3-3-7--3--7--|
|-4------5s4-4------5s4-|-3--3-3-3-3-7--3--7--|
|-2--2-2-3s2-2--2-2-3s2-|-1--1-1-1-1-5--1--5--|


    C#5      D5C#5        DC#5         D5C#N.C.
       PM|        PM|            PM|
    Q  E E E E Q  E E E E     Q  E E E E E E E E E E
||--------------------------|-------------------------|
||--------------------------|-------------------------|
||o-------------------------|-------------------------|
||--------------------------|-------------------------|
||o-4------5s4-4------5s4---|-4------5s4--------------|
||--4------5s4-4------5s4---|-4------5s4-------2------|
||--2--2-2-3s2-2--2-2-3s2---|-2--2-2-3s2-2-3-5---5-3--|


  C#5      D5C#5        DC#5C5         E5
     PM|        PM|
  Q  E E E E Q  E E E E     Q  E E E E Q  Q  Q
|-------------------------|----------------------||
|-------------------------|----------------------||
|-------------------------|---------------------o||
|-------------------------|----------------------||
|-4------5s4-4------5s4---|-3--3-3-3-3-7--7--7--o||
|-4------5s4-4------5s4---|-3--3-3-3-3-7--7--7---||
|-2--2-2-3s2-2--2-2-3s2---|-1--1-1-1-1-5--5--5---||


 Chorus
  Q=140
  D5C5B5C5    B5C5  B5C5D5B5    C5B5  D5C5B5C5    B5C5  B5C5D5B5    C5B5
 4/4
          PM                PM                PM                PM
  E E E E E E E E   E E E E E E E E   E E E E E E E E   E E E E E E E E
|-----------------|-----------------|-----------------|-----------------|
|-----------------|-----------------|-----------------|-----------------|
|-----------------|-----------------|-----------------|-----------------|
|-----------------|-----------------|-----------------|-----------------|
|-5s3-2-3---3-2-3-|-2-3s5-2---2-3-2-|-5s3-2-3---3-2-3-|-2-3s5-2---2-3-2-|
|-5s3-2-3---3-2-3-|-2-3s5-2---2-3-2-|-5s3-2-3---3-2-3-|-2-3s5-2---2-3-2-|
|-3s1-0-1-0-1-0-1-|-0-1s3-0-0-0-1-0-|-3s1-0-1-0-1-0-1-|-0-1s3-0-0-0-1-0-|


  G5                A5         D5C5B5C5    B5C5  B5C5D5B5    C5B5
              PM|                      PM                PM
  H.      +E  S S   W          E E E E E E E E   E E E E E E E E
|-----------------|----------|-----------------|-----------------|
|-----------------|----------|-----------------|-----------------|
|-----------------|----------|-----------------|-----------------|
|-5-------(5)-x-x-|-7--------|-----------------|-----------------|
|-5-------(5)-x-x-|-7--------|-5s3-2-3---3-2-3-|-2-3s5-2---2-3-2-|
|-3-------(3)-x-x-|-5--------|-5s3-2-3---3-2-3-|-2-3s5-2---2-3-2-|
|-----------------|----------|-3s1-0-1-0-1-0-1-|-0-1s3-0-0-0-1-0-|


                                                 To Coda
  G5         F#5        D5C5B5C5    B5C5  B5C5D5B5    F5
                                PM                PM
  W          W          E E E E E E E E   E E E E E E Q
|----------|----------|-----------------|----------------|
|----------|----------|-----------------|----------------|
|----------|----------|-----------------|----------------|
|-5--------|-4--------|-----------------|----------------|
|-5--------|-4--------|-5s3-2-3---3-2-3-|-2-3s5-2---2-8--|
|-3--------|-2--------|-5s3-2-3---3-2-3-|-2-3s5-2---2-8--|
|----------|----------|-3s1-0-1-0-1-0-1-|-0-1s3-0-0-0-6--|


   Interlude #2
    B5         N.C.
    Gtr III
    PM----|                                             ~~~~
    E. E. E Q  S  S S  S   S  S S  S S S  S S S S  S S  Q
||-----------------------|--------------------------------------|
||-----------------------|--------------------------------------|
||o----------------------|-7-----------7----7-9-7----7----------|
||-------------7-10-9-10-|---10-9-10-9---10-------10---[9]\-----|
||o---------2------------|--------------------------------------|
||----------2------------|--------------------------------------|
||--0--0--0-0------------|--------------------------------------|
|
|   Gtr II
|   PM----|                                             ~~~~~~~~
|   E. E. E Q  S  S S  S   S  S S  S S S  S S S S  S S  E   +E
||-----------------------|--------------------------------------|
||-----------------------|--------------------------------------|
||o----------------------|--------------------------------------|
||-----------------------|--------------------------------------|
||o---------2------------|-5-----------5----5-7-5----5----------|
||----------2--5--8-7--8-|----8-7--8-7----8--------8----7---(7)-|
||--0--0--0-0------------|--------------------------------------|


                                                      D.S. al Coda
  B5             N.C.
  PM--------|                                            ~~~~~~~~~
  S E E S S S Q  S  S S  S   S  S S  S S S S S  S S S S  E   +E
|--------------------------|----------------------------------------||
|--------------------------|----------------------------------------||
|--------------------------|-7-------------------------------------o||
|----------------7-10-9-10-|---10-9-10-6-9-7-9-10-9-7-9-[6]-([6])---||
|-------------2------------|---------------------------------------o||
|-------------2------------|----------------------------------------||
|-0-0-0-0-0-0-0------------|----------------------------------------||
|
| PM--------|                                            ~~~~~~~~~
| S E E S S S Q  S  S S  S   S  S S  S S S S S  S S S S  E   +E
|--------------------------|----------------------------------------||
|--------------------------|----------------------------------------||
|--------------------------|---------------------------------------o||
|--------------------------|----------------------------------------||
|-------------2------------|-5-------------------------------------o||
|-------------2--5--8-7--8-|----8-7--8-4-7-5-7--8-7-5-7--4---(4)----||
|-0-0-0-0-0-0-0------------|----------------------------------------||


 Chorus
  &
  G5                A5         D5C5B5C5    B5C5  B5C5D5B5    C5B5
  Gtrs II, III
              PM|                      PM                PM
  H.      +E  S S   W          E E E E E E E E   E E E E E E E E
|-----------------|----------|-----------------|-----------------|
|-----------------|----------|-----------------|-----------------|
|-----------------|----------|-----------------|-----------------|
|-5-------(5)-x-x-|-7--------|-----------------|-----------------|
|-5-------(5)-x-x-|-7--------|-5s3-2-3---3-2-3-|-2-3s5-2---2-3-2-|
|-3-------(3)-x-x-|-5--------|-5s3-2-3---3-2-3-|-2-3s5-2---2-3-2-|
|-----------------|----------|-3s1-0-1-0-1-0-1-|-0-1s3-0-0-0-1-0-|


  G5         F#5        D5C5B5C5    B5C5  B5C5D5B5    F5
                                PM                PM
  W          W          E E E E E E E E   E E E E E E Q
|----------|----------|-----------------|----------------|
|----------|----------|-----------------|----------------|
|----------|----------|-----------------|----------------|
|-5--------|-4--------|-----------------|----------------|
|-5--------|-4--------|-5s3-2-3---3-2-3-|-2-3s5-2---2-8--|
|-3--------|-2--------|-5s3-2-3---3-2-3-|-2-3s5-2---2-8--|
|----------|----------|-3s1-0-1-0-1-0-1-|-0-1s3-0-0-0-6--|


 Guitar Solo
  E5
 4/4
  Gtrs IV, V
            T    T     T  T    T     T  T    T
            |----6-----|  |----6-----|  |----6-----|
  S  S S S  S S  S S S S  S S  S S S S  S S  S S S S
|-7-12-7-0-12p7-12p7p0-7-12p7-12p7p0-7-12p7-12p7p0-7-|
|----------------------------------------------------|
|----------------------------------------------------|
|----------------------------------------------------|
|----------------------------------------------------|
|----------------------------------------------------|
|----------------------------------------------------|
|
| Gtrs II, III
| W
|----------------------------------------------------|
|----------------------------------------------------|
|----------------------------------------------------|
|-2--------------------------------------------------|
|-2--------------------------------------------------|
|-0--------------------------------------------------|
|----------------------------------------------------|


   T    T     T  T    T     T  T    T     T  T    T     T
   |----6-----|  |----6-----|  |----6-----|  |----6-----|
   S S  S S S S  S S  S S S S  S S  S S S S  S S  S S S S
|-12p7-12p7p0-7-12p7-12p7p0-7-12p7-12p7p0-7-12p7-12p7p0-8---|
|-----------------------------------------------------------|
|-----------------------------------------------------------|
|-----------------------------------------------------------|
|-----------------------------------------------------------|
|-----------------------------------------------------------|
|-----------------------------------------------------------|
|
|  W
|-----------------------------------------------------------|
|-----------------------------------------------------------|
|-----------------------------------------------------------|
|--2--------------------------------------------------------|
|--2--------------------------------------------------------|
|--0--------------------------------------------------------|
|-----------------------------------------------------------|


  E5
   T    T     T  T    T     T  T    T     T  T    T     T
   |----6-----|  |----6-----|  |----6-----|  |----6-----|
   S S  S S S S  S S  S S S S  S S  S S S S  S S  S S S S
|-13p8-13p8p0-8-13p8-13p8p0-8-13p8-13p8p0-8-13p8-13p8p0-8-|
|---------------------------------------------------------|
|---------------------------------------------------------|
|---------------------------------------------------------|
|---------------------------------------------------------|
|---------------------------------------------------------|
|---------------------------------------------------------|
|
|  W
|---------------------------------------------------------|
|---------------------------------------------------------|
|---------------------------------------------------------|
|--2------------------------------------------------------|
|--2------------------------------------------------------|
|--0------------------------------------------------------|
|---------------------------------------------------------|


  F5                          C5            D5
   T    T     T  T    T     T  T    T     T  T    T     T
   |----6-----|  |----6-----|  |----6-----|  |----6-----|
   S S  S S S S  S S  S S S S  S S  S S S S  S S  S S S S
|-15p8-15p8p0-8-15p8-15p8p0-8-17p8-17p8-0-8-15p8-15p8p0-8--|
|----------------------------------------------------------|
|----------------------------------------------------------|
|----------------------------------------------------------|
|----------------------------------------------------------|
|----------------------------------------------------------|
|----------------------------------------------------------|
|
|  Q.                   E      Q             Q
|----------------------------------------------------------|
|----------------------------------------------------------|
|----------------------------------------------------------|
|--3--------------------3----------------------------------|
|--3--------------------3------3-------------5-------------|
|--1--------------------1------3-------------5-------------|
|------------------------------1-------------3-------------|


  E5
   T    T     T  T    T     T  T    T     T  T    T     T
   |----6-----|  |----6-----|  |----6-----|  |----6-----|
   S S  S S S S  S S  S S S S  S S  S S S S  S S  S S S S
|-12p7-12p7p0-7-12p7-12p7p0-7-12p7-12p7p0-7-12p7-12p7p0-7-|
|---------------------------------------------------------|
|---------------------------------------------------------|
|---------------------------------------------------------|
|---------------------------------------------------------|
|---------------------------------------------------------|
|---------------------------------------------------------|
|
|  W
|---------------------------------------------------------|
|---------------------------------------------------------|
|---------------------------------------------------------|
|--2------------------------------------------------------|
|--2------------------------------------------------------|
|--0------------------------------------------------------|
|---------------------------------------------------------|


   T    T     T    T  T     T  T    T     T  T    T     T
   |----6-----|  |----6-----|  |----6-----|  |----6-----|
   S S  S S S S  S S  S S S S  S S  S S S S  S S  S S S S
|-12p7-12p7p0-7-12p7-12p7p0-7-12p7-12p7p0-7-12p7-12p7p0-8--|
|----------------------------------------------------------|
|----------------------------------------------------------|
|----------------------------------------------------------|
|----------------------------------------------------------|
|----------------------------------------------------------|
|----------------------------------------------------------|
|
|  W
|----------------------------------------------------------|
|----------------------------------------------------------|
|----------------------------------------------------------|
|--2-------------------------------------------------------|
|--2-------------------------------------------------------|
|--0-------------------------------------------------------|
|----------------------------------------------------------|


  E5
   T    T     T  T    T     T  T    T     T  T    T     T
   |----6-----|  |----6-----|  |----6-----|  |----6-----|
   S S  S S S S  S S  S S S S  S S  S S S S  S S  S S S S
|-13p8-13p8p0-8-13p8-13p8p0-8-13p8-13p8p0-8-13p8-13p8p0-8-|
|---------------------------------------------------------|
|---------------------------------------------------------|
|---------------------------------------------------------|
|---------------------------------------------------------|
|---------------------------------------------------------|
|---------------------------------------------------------|
|
|  W
|---------------------------------------------------------|
|---------------------------------------------------------|
|---------------------------------------------------------|
|--2------------------------------------------------------|
|--2------------------------------------------------------|
|--0------------------------------------------------------|
|---------------------------------------------------------|


  F5                          C5            D5
   T    T     T  T    T     T  T    T     T T
   |----6-----|  |----6-----|  |----6-----|
   S S  S S S S  S S  S S S S  S S  S S S S Q
|-15p8-15p8p0-8-15p8-15p8p0-8-17p8-17p8p0-8-8/----|
|-------------------------------------------------|
|-------------------------------------------------|
|-------------------------------------------------|
|-------------------------------------------------|
|-------------------------------------------------|
|-------------------------------------------------|
|
|  Q.                   E      Q            Q
|-------------------------------------------------|
|-------------------------------------------------|
|-------------------------------------------------|
|--3--------------------3-------------------------|
|--3--------------------3------3------------5-----|
|--1--------------------1------3------------5-----|
|------------------------------1------------3-----|


 Harmony Lead
  N.C.                    C#5
  Gtrs IV, V
   S  S  S  S  S  S  S  S  S  S  S  S  S  S  S  S
|-18-15-------------------------------------------|
|-------17-------17-16-15-14----14----------------|
|----------18-15-------------17----15----------15-|
|-------------------------------------17-14-17----|
|-------------------------------------------------|
|-------------------------------------------------|
|-------------------------------------------------|
|
| Gtrs II, III
|  PM---------------------|
|  S  S  S  S  S  S  S  S  E     E     Q
|-------------------------------------------------|
|-------------------------------------------------|
|-------------------------------------------------|
|-------------------------------------------------|
|--------------------------4----------------------|
|--------------------------4----------------------|
|--2--2--2--2--2--2--2--2--2----------------------|


   S  S  S  S  S  S  S  S  S  S  S  S  S  S  S  S
|----------------15-18s21-18-15-------------------|
|-14-17-------17----------------17-------17-16-15-|
|-------15-18----------------------18-15----------|
|-------------------------------------------------|
|-------------------------------------------------|
|-------------------------------------------------|
|-------------------------------------------------|
|
|  W
|-------------------------------------------------|
|-------------------------------------------------|
|-------------------------------------------------|
|-------------------------------------------------|
|-------------------------------------------------|
|-------------------------------------------------|
|-------------------------------------------------|


  N.C.                    C#5
   S  S  S  S  S  S  S  S  S  S  S  S  S  S  S  S
|----------------------------------------15-18-15-|
|-14----14----------------14-17-------17----------|
|----17----15----------15-------15-18-------------|
|-------------17-14-17----------------------------|
|-------------------------------------------------|
|-------------------------------------------------|
|-------------------------------------------------|
|
|  PM---------------------|
|  S  S  S  S  S  S  S  S  E     E     Q
|-------------------------------------------------|
|-------------------------------------------------|
|-------------------------------------------------|
|-------------------------------------------------|
|--------------------------4----------------------|
|--------------------------4----------------------|
|--2--2--2--2--2--2--2--2--2----------------------|


   S  S  S  S  S  S  S  S  S  S  S  S  S  S  S  S
|-------------------------------------------------|
|-17----------------------------------------------|
|----18-15----18-17-16-15----15----------------15-|
|----------17-------------19----17----------17----|
|----------------------------------19-16-19-------|
|-------------------------------------------------|
|-------------------------------------------------|
|
|  W
|-------------------------------------------------|
|-------------------------------------------------|
|-------------------------------------------------|
|-------------------------------------------------|
|-------------------------------------------------|
|-------------------------------------------------|
|-------------------------------------------------|


  N.C.                    C5
   S  S  S  S  S  S  S  S  S  S  S  S  S  S  S  S
|-17-14-------------------------------------------|
|-------16-------16-15-14-13----13----------------|
|----------17-14-------------16----14----------14-|
|-------------------------------------16-13-16----|
|-------------------------------------------------|
|-------------------------------------------------|
|-------------------------------------------------|
|
|  PM---------------------|
|  S  S  S  S  S  S  S  S  E     E     Q
|-------------------------------------------------|
|-------------------------------------------------|
|-------------------------------------------------|
|-------------------------------------------------|
|--------------------------3----------------------|
|--------------------------3----------------------|
|--1--1--1--1--1--1--1--1--1----------------------|


   S  S  S  S  S  S  S  S  S  S  S  S  S  S  S  S
|----------------14-17s20-17-14-------------------|
|-13-16-------16----------------16-------16-15-14-|
|-------14-17----------------------17-14----------|
|-------------------------------------------------|
|-------------------------------------------------|
|-------------------------------------------------|
|-------------------------------------------------|
|
|  W
|-------------------------------------------------|
|-------------------------------------------------|
|-------------------------------------------------|
|-------------------------------------------------|
|-------------------------------------------------|
|-------------------------------------------------|
|-------------------------------------------------|


  N.C.                    C5
   S  S  S  S  S  S  S  S  S  S  S  S  S  S  S  S
|----------------------------------------14-17-14-|
|-13----13----------------13-16-------16----------|
|----16----14----------14-------14-17-------------|
|-------------16-13-16----------------------------|
|-------------------------------------------------|
|-------------------------------------------------|
|-------------------------------------------------|
|
|  PM---------------------|
|  S  S  S  S  S  S  S  S  E     E     Q
|-------------------------------------------------|
|-------------------------------------------------|
|-------------------------------------------------|
|-------------------------------------------------|
|--------------------------3----------------------|
|--------------------------3----------------------|
|--1--1--1--1--1--1--1--1--1----------------------|


   S  S  S  S  S  S  S  S  S  S  S  S  S  S  S  S
|-------------------------------------------------|
|-16----------------------------------------------|
|----17-14----17-16-15-14----14----------------14-|
|----------16-------------18----16----------16----|
|----------------------------------18-15-18-------|
|-------------------------------------------------|
|-------------------------------------------------|
|
|  W
|-------------------------------------------------|
|-------------------------------------------------|
|-------------------------------------------------|
|-------------------------------------------------|
|-------------------------------------------------|
|-------------------------------------------------|
|-------------------------------------------------|


  N.C.                    C#5
  Gtr IV
   S  S  S  S  S  S  S  S  S  S  S  S  S  S  S  S
|-18-15-------------------------------------------|
|-------17-------17-16-15-14----14----------------|
|----------18-15-------------17----15----------15-|
|-------------------------------------17-14-17----|
|-------------------------------------------------|
|-------------------------------------------------|
|-------------------------------------------------|
|
| Gtr V
|  S  S  S  S  S  S  S  S  S  S  S  S  S  S  S  S
|-15-12-------------------------------------------|
|-------14-------14-13-12-11----11----------------|
|----------15-12-------------14----12----------12-|
|-------------------------------------14-11-14----|
|-------------------------------------------------|
|-------------------------------------------------|
|-------------------------------------------------|
|
| Gtrs II, III
|  PM---------------------|
|  S  S  S  S  S  S  S  S  E     E     Q
|-------------------------------------------------|
|-------------------------------------------------|
|-------------------------------------------------|
|-------------------------------------------------|
|--------------------------4----------------------|
|--------------------------4----------------------|
|--2--2--2--2--2--2--2--2--2----------------------|


   S  S  S  S  S  S  S  S  S  S  S  S  S  S  S  S
|----------------15-18s21-18-15-------------------|
|-14-17-------17----------------17-------17-16-15-|
|-------15-18----------------------18-15----------|
|-------------------------------------------------|
|-------------------------------------------------|
|-------------------------------------------------|
|-------------------------------------------------|
|
|  S  S  S  S  S  S  S  S  S  S  S  S  S  S  S  S
|----------------12-15s18-15-12-------------------|
|-11-14-------14----------------14-------14-13-12-|
|-------12-15----------------------15-12----------|
|-------------------------------------------------|
|-------------------------------------------------|
|-------------------------------------------------|
|-------------------------------------------------|
|
|  W
|-------------------------------------------------|
|-------------------------------------------------|
|-------------------------------------------------|
|-------------------------------------------------|
|-------------------------------------------------|
|-------------------------------------------------|
|-------------------------------------------------|


  N.C.                    C#5
   S  S  S  S  S  S  S  S  S  S  S  S  S  S  S  S
|----------------------------------------15-18-15-|
|-14----14----------------14-17-------17----------|
|----17----15----------15-------15-18-------------|
|-------------17-14-17----------------------------|
|-------------------------------------------------|
|-------------------------------------------------|
|-------------------------------------------------|
|
|  S  S  S  S  S  S  S  S  S  S  S  S  S  S  S  S
|----------------------------------------12-15-12-|
|-11----11----------------11-14-------14----------|
|----14----12----------12-------12-15-------------|
|-------------14-11-14----------------------------|
|-------------------------------------------------|
|-------------------------------------------------|
|-------------------------------------------------|
|
|  PM---------------------|
|  S  S  S  S  S  S  S  S  E     E     Q
|-------------------------------------------------|
|-------------------------------------------------|
|-------------------------------------------------|
|-------------------------------------------------|
|--------------------------4----------------------|
|--------------------------4----------------------|
|--2--2--2--2--2--2--2--2--2----------------------|


   S  S  S  S  S  S  S  S  S  S  S  S  S  S  S  S
|-------------------------------------------------|
|-17----------------------------------------------|
|----18-15----18-17-16-15----15----------------15-|
|----------17-------------19----17----------17----|
|----------------------------------19-16-19-------|
|-------------------------------------------------|
|-------------------------------------------------|
|
|  S  S  S  S  S  S  S  S  S  S  S  S  S  S  S  S
|-------------------------------------------------|
|-14----------------------------------------------|
|----15-12----15-14-13-12----12----------------12-|
|----------14-------------16----14----------14----|
|----------------------------------16-13-16-------|
|-------------------------------------------------|
|-------------------------------------------------|
|
|  W
|-------------------------------------------------|
|-------------------------------------------------|
|-------------------------------------------------|
|-------------------------------------------------|
|-------------------------------------------------|
|-------------------------------------------------|
|-------------------------------------------------|


  N.C.                    C5
   S  S  S  S  S  S  S  S  S  S  S  S  S  S  S  S
|-17-14-------------------------------------------|
|-------16-------16-15-14-13----13----------------|
|----------17-14-------------16----14----------14-|
|-------------------------------------16-13-16----|
|-------------------------------------------------|
|-------------------------------------------------|
|-------------------------------------------------|
|
|  S  S  S  S  S  S  S  S  S  S  S  S  S  S  S  S
|-14-11-------------------------------------------|
|-------13-------13-12-11-10----10----------------|
|----------14-11-------------13----11----------11-|
|-------------------------------------13-10-13----|
|-------------------------------------------------|
|-------------------------------------------------|
|-------------------------------------------------|
|
|  PM---------------------|
|  S  S  S  S  S  S  S  S  E     E     Q
|-------------------------------------------------|
|-------------------------------------------------|
|-------------------------------------------------|
|-------------------------------------------------|
|--------------------------3----------------------|
|--------------------------3----------------------|
|--1--1--1--1--1--1--1--1--1----------------------|


   S  S  S  S  S  S  S  S  S  S  S  S  S  S  S  S
|----------------14-17s20-17-14-------------------|
|-13-16-------16----------------16-------16-15-14-|
|-------14-17----------------------17-14----------|
|-------------------------------------------------|
|-------------------------------------------------|
|-------------------------------------------------|
|-------------------------------------------------|
|
|  S  S  S  S  S  S  S  S  S  S  S  S  S  S  S  S
|----------------11-14s17-14-11-------------------|
|-10-13-------13----------------13-------13-12-11-|
|-------11-14----------------------14-11----------|
|-------------------------------------------------|
|-------------------------------------------------|
|-------------------------------------------------|
|-------------------------------------------------|
|
|  W
|-------------------------------------------------|
|-------------------------------------------------|
|-------------------------------------------------|
|-------------------------------------------------|
|-------------------------------------------------|
|-------------------------------------------------|
|-------------------------------------------------|


  N.C.                    C5
   S  S  S  S  S  S  S  S  S  S  S  S  S  S  S  S
|----------------------------------------14-17-14-|
|-13----13----------------13-16-------16----------|
|----16----14----------14-------14-17-------------|
|-------------16-13-16----------------------------|
|-------------------------------------------------|
|-------------------------------------------------|
|-------------------------------------------------|
|
|  S  S  S  S  S  S  S  S  S  S  S  S  S  S  S  S
|----------------------------------------11-14-11-|
|-10----10----------------10-13-------13----------|
|----13----11----------11-------11-14-------------|
|-------------13-10-13----------------------------|
|-------------------------------------------------|
|-------------------------------------------------|
|-------------------------------------------------|
|
|  PM---------------------|
|  S  S  S  S  S  S  S  S  E     E     Q
|-------------------------------------------------|
|-------------------------------------------------|
|-------------------------------------------------|
|-------------------------------------------------|
|--------------------------3----------------------|
|--------------------------3----------------------|
|--1--1--1--1--1--1--1--1--1----------------------|


  B5/F#
   S  S  S  S  S  S  S  S  S  S  S  S  S  S  S  S
|-------------------------------------------------|
|-16----------------------------------------------|
|----17-14----17-16-15-14----14----------------14-|
|----------16-------------18----16----------16----|
|----------------------------------18-15-18-------|
|-------------------------------------------------|
|-------------------------------------------------|
|
|  S  S  S  S  S  S  S  S  S  S  S  S  S  S  S  S
|-------------------------------------------------|
|-13----------------------------------------------|
|----14-11----14-13-12-11----11----------------11-|
|----------13-------------15----13----------13----|
|----------------------------------15-12-15-------|
|-------------------------------------------------|
|-------------------------------------------------|
|
|  <
|  W
|-------------------------------------------------|
|-------------------------------------------------|
|-------------------------------------------------|
|-------------------------------------------------|
|--9----------------------------------------------|
|--7----------------------------------------------|
|--7----------------------------------------------|


 Guitar Solo #2
  N.C.                    B5
  Gtrs IV, V
                           ~~~~~~~~~~~~~~~~~~
                                                          |--4:3---|
   Q            +Q         H            +Q.     E  E  E.  S  S  S  S
|-17b19========(17)-------17pb19=====|=(17)r---19-20-19--20p19p17h19-|
|------------------------------------|-------------------------------|
|------------------------------------|-------------------------------|
|------------------------------------|-------------------------------|
|------------------------------------|-------------------------------|
|------------------------------------|-------------------------------|
|------------------------------------|-------------------------------|
|
| Gtrs II, III
|  PM---------------------|~~~~~~~~~~~~~~~~~~
|  S     S S S   S  S S S  H            +W
|------------------------------------|-------------------------------|
|------------------------------------|-------------------------------|
|------------------------------------|-------------------------------|
|------------------------------------|-------------------------------|
|--------------------------2---------|--(2)--------------------------|
|--------------------------2---------|--(2)--------------------------|
|--0-----0-0-0---0--0-0-0--0---------|--(0)--------------------------|


  N.C.                B5
  Gtr IV
                       ~~
   H                   H       +E   E.  E.  E  S     +S   +S   S     +S   +S
|-17b19r==============17----|-(17)-14--15--14-15b17-(15)-(15)-15b17-(15)-(15)-|
|---------------------------|-------------------------------------------------|
|---------------------------|-------------------------------------------------|
|---------------------------|-------------------------------------------------|
|---------------------------|-------------------------------------------------|
|---------------------------|-------------------------------------------------|
|---------------------------|-------------------------------------------------|
|
| Gtr V
|                      ~~
|  H                   H       +E   E.  E.  E  S     +S   +S   S     +S   +S
|-17b19r==============17----|-(17)--------------------------------------------|
|---------------------------|------12--13--12-13b15-(13)-(13)-13b15-(13)-(13)-|
|---------------------------|-------------------------------------------------|
|---------------------------|-------------------------------------------------|
|---------------------------|-------------------------------------------------|
|---------------------------|-------------------------------------------------|
|---------------------------|-------------------------------------------------|
|
| Gtrs II, III
|  PM-----------------|~~~~~~~~~~~~
|  S    S S S S S S S  H       +W
|---------------------------|-------------------------------------------------|
|---------------------------|-------------------------------------------------|
|---------------------------|-------------------------------------------------|
|---------------------------|-------------------------------------------------|
|----------------------2----|--(2)--------------------------------------------|
|----------------------2----|--(2)--------------------------------------------|
|--1----1-1-1-1-1-1-1--0----|--(0)--------------------------------------------|


  N.C.                        B5
                                     |--3--|
   S     +S   +Q         S  S  Q.    S  S  S
|-15b17-(15)-(15)-------15-14-15-------------|
|-----------------------------------12h13h15-|
|--------------------------------------------|
|--------------------------------------------|
|--------------------------------------------|
|--------------------------------------------|
|--------------------------------------------|
|
|  S     +S   +Q         S  S  H
|--------------------------------------------|
|-13b15-(13)-(13)-------13-12-13-------------|
|--------------------------------------------|
|--------------------------------------------|
|--------------------------------------------|
|--------------------------------------------|
|--------------------------------------------|
|
|  PM-------------------------|~~~~~~~~~~~~~~~
|  S      S    S  S S S  S  S  H
|--------------------------------------------|
|--------------------------------------------|
|--------------------------------------------|
|--------------------------------------------|
|------------------------------2-------------|
|------------------------------2-------------|
|--0------0----0--0-0-0--0--0--0-------------|


  a a  E   E  E  S  S  S  S  S  S  S  S  S  S
|-----12--14-15-15-14-12----------------------|
|---x--------------------15-13-12-------------|
|-x-------------------------------14-12-11----|
|------------------------------------------14-|
|---------------------------------------------|
|---------------------------------------------|
|---------------------------------------------|
|
|      W
|---------------------------------------------|
|---------------------------------------------|
|---------------------------------------------|
|---------------------------------------------|
|---------------------------------------------|
|---------------------------------------------|
|---------------------------------------------|
|
|~~~~~~~~~
|     +W
|---------------------------------------------|
|---------------------------------------------|
|---------------------------------------------|
|---------------------------------------------|
|-----(2)-------------------------------------|
|-----(2)-------------------------------------|
|-----(0)-------------------------------------|


  N.C.                       C5
                                                 |--3--| |-3--|  |-3--|
   S     +S   +Q         S S  H       S   S S  S E  E  E E  E E  E E  E
|----------------------------------|------------------------------------|
|----------------------------------|------------------------------------|
|----------------------------------|------------------------------------|
|-10b12-(10)-(10)-------10-9-10----|--9h=10p9----9----------------------|
|----------------------------------|----------12---12-10-9-10-9----9----|
|----------------------------------|----------------------------12---12-|
|----------------------------------|------------------------------------|
|
|  PM------------------------|~~~~~~~~~~~
|  S      S    S  S S S  S S  H      +W
|----------------------------------|------------------------------------|
|----------------------------------|------------------------------------|
|----------------------------------|------------------------------------|
|----------------------------------|------------------------------------|
|-----------------------------3----|-(3)--------------------------------|
|-----------------------------3----|-(3)--------------------------------|
|--0------0----0--0-0-0--0-0--1----|-(1)--------------------------------|


 Pre-Chorus
  Q.=130
  C#5      D5C#5           D5C#5         D5C#N.C.
 12/8
  Gtrs IV, V
   ~~~
   H.           +H.              W.
|------------------------------|-------------------------|
|------------------------------|-------------------------|
|------------------------------|-------------------------|
|------------------------------|-------------------------|
|------------------------------|-------------------------|
|-[9]----------([9])\----------|-------------------------|
|------------------------------|-------------------------|
|
| Gtrs II, III
|      PM|             PM|           PM|
|  Q   E E E E   Q     E E E E   Q   E E E E E E E E E E
|------------------------------|-------------------------|
|------------------------------|-------------------------|
|------------------------------|-------------------------|
|------------------------------|-------------------------|
|--4-------5s4---4---------5s4-|-4-------5s4-------------|
|--4-------5s4---4---------5s4-|-4-------5s4-------2-----|
|--2---2-2-3s2---2-----2-2-3s2-|-2---2-2-3s2-2-3-5---5-3-|


  C#5    D5C#5      D5C#5 C5         E5 C5 E5
  Gtrs II, III
     PM|        PM|
  Q  E E E E Q  E E E E   Q  E E E E Q  Q  Q
|-----------------------|---------------------|
|-----------------------|---------------------|
|-----------------------|---------------------|
|-----------------------|---------------------|
|-4------5s4-4------5s4-|-3--3-3-3-3-7--3--7--|
|-4------5s4-4------5s4-|-3--3-3-3-3-7--3--7--|
|-2--2-2-3s2-2--2-2-3s2-|-1--1-1-1-1-5--1--5--|


    C#5    D5C#5      D5C#5        D5C#N.C.
       PM|        PM|          PM|
    Q  E E E E Q  E E E E   Q  E E E E E E E E E E
||------------------------|------------------------|
||------------------------|------------------------|
||o-----------------------|------------------------|
||------------------------|------------------------|
||o-4------5s4-4------5s4-|-4------5s4-------------|
||--4------5s4-4------5s4-|-4------5s4-------2-----|
||--2--2-2-3s2-2--2-2-3s2-|-2--2-2-3s2-2-3-5---5-3-|


  C#5    D5C#5      D5C#5 C5         E5 C5 E5
     PM|        PM|
  Q  E E E E Q  E E E E   Q  E E E E Q  Q  Q
|-----------------------|----------------------||
|-----------------------|----------------------||
|-----------------------|---------------------o||
|-----------------------|----------------------||
|-4------5s4-4------5s4-|-3--3-3-3-3-7--3--7--o||
|-4------5s4-4------5s4-|-3--3-3-3-3-7--3--7---||
|-2--2-2-3s2-2--2-2-3s2-|-1--1-1-1-1-5--1--5---||


 Out-Chorus
  Q=140
  D5C5B5C5    B5C5  B5C5D5B5    C5B5  D5C5B5C5    B5C5  B5C5D5B5    C5B5
 4/4
          PM                PM                PM                PM
  E E E E E E E E   E E E E E E E E   E E E E E E E E   E E E E E E E E
|-----------------|-----------------|-----------------|-----------------|
|-----------------|-----------------|-----------------|-----------------|
|-----------------|-----------------|-----------------|-----------------|
|-----------------|-----------------|-----------------|-----------------|
|-5s3-2-3---3-2-3-|-2-3s5-2---2-3-2-|-5s3-2-3---3-2-3-|-2-3s5-2---2-3-2-|
|-5s3-2-3---3-2-3-|-2-3s5-2---2-3-2-|-5s3-2-3---3-2-3-|-2-3s5-2---2-3-2-|
|-3s1-0-1-0-1-0-1-|-0-1s3-0-0-0-1-0-|-3s1-0-1-0-1-0-1-|-0-1s3-0-0-0-1-0-|


  G5                A5         D5C5B5C5    B5C5  B5C5D5B5    C5B5
              PM|                      PM                PM
  H.      +E  S S   W          E E E E E E E E   E E E E E E E E
|-----------------|----------|-----------------|-----------------|
|-----------------|----------|-----------------|-----------------|
|-----------------|----------|-----------------|-----------------|
|-5-------(5)-x-x-|-7--------|-----------------|-----------------|
|-5-------(5)-x-x-|-7--------|-5s3-2-3---3-2-3-|-2-3s5-2---2-3-2-|
|-3-------(3)-x-x-|-5--------|-5s3-2-3---3-2-3-|-2-3s5-2---2-3-2-|
|-----------------|----------|-3s1-0-1-0-1-0-1-|-0-1s3-0-0-0-1-0-|


  G5         F#5        D5C5B5C5    B5C5  B5C5D5B5    F5
                                PM                PM
  W          W          E E E E E E E E   E E E E E E Q
|----------|----------|-----------------|----------------|
|----------|----------|-----------------|----------------|
|----------|----------|-----------------|----------------|
|-5--------|-4--------|-----------------|----------------|
|-5--------|-4--------|-5s3-2-3---3-2-3-|-2-3s5-2---2-8--|
|-3--------|-2--------|-5s3-2-3---3-2-3-|-2-3s5-2---2-8--|
|----------|----------|-3s1-0-1-0-1-0-1-|-0-1s3-0-0-0-6--|


  G5                A5         D5C5B5C5    B5C5  B5C5D5B5    C5B5
              PM|                      PM                PM
  H.      +E  S S   W          E E E E E E E E   E E E E E E E E
|-----------------|----------|-----------------|-----------------|
|-----------------|----------|-----------------|-----------------|
|-----------------|----------|-----------------|-----------------|
|-5-------(5)-x-x-|-7--------|-----------------|-----------------|
|-5-------(5)-x-x-|-7--------|-5s3-2-3---3-2-3-|-2-3s5-2---2-3-2-|
|-3-------(3)-x-x-|-5--------|-5s3-2-3---3-2-3-|-2-3s5-2---2-3-2-|
|-----------------|----------|-3s1-0-1-0-1-0-1-|-0-1s3-0-0-0-1-0-|


  G5         A5         D5C5B5C5N.C.              B5C5D5B5
                        PM------------------------------|
  W          W          E E E E  E   E   E   E    E E E E H
|----------|----------|-------------------------|--------------*|
|----------|----------|-------------------------|--------------*|
|----------|----------|-------------------------|--------------*|
|-5--------|-7--------|-------------------------|--------------*|
|-5--------|-7--------|-5-3-2-3-----------------|-2-3-5-2------*|
|-3--------|-5--------|-5-3-2-3-<7>-<7>-<7>-<7>-|-2-3-5-2------*|
|----------|----------|-3-1-0-1-<5>-<5>-<5>-<5>-|-0-1-3-0------*|



Duration Legend
---------------
W - whole; H - half; Q - quarter; E - 8th; S - 16th; T - 32nd; X - 64th; a - acciaccatura
+ - note tied to previous; . - note dotted; .. - note double dotted
Uncapitalized letters represent notes that are staccato (1/2 duration)
Irregular groupings are notated above the duration line
Duration letters will always appear directly above the note/fret number it represents the
duration for.  Duration letters with no fret number below them represent rests.  Multi-
bar rests are notated in the form Wxn, where n is the number of bars to rest for.  Low
melody durations appear below the staff

Tablature Legend
----------------
 h   - hammer-on
 p   - pull-off
 b   - bend
 pb  - pre-bend
 r   - bend release (if no number after the r, then release immediately)
 /\  - slide into or out of (from/to "nowhere")
 s   - legato slide
 S   - shift slide
 - natural harmonic
[n]  - artificial harmonic
n(n) - tapped harmonic
 ~   - vibrato
 tr  - trill
 T   - tap
 TP  - trem. picking
 PM  - palm muting
\n/  - tremolo bar dip; n = amount to dip
 \n  - tremolo bar down
 n/  - tremolo bar up
/n\  - tremolo bar inverted dip
 =   - hold bend; also acts as connecting device for hammers/pulls
 <> - volume swell (louder/softer)
 x   - on rhythm slash represents muted slash
 o   - on rhythm slash represents single note slash

Misc Legend
-----------
 |  - bar
||  - double bar
||o - repeat start
o|| - repeat end
*|  - double bar (ending)
 :  - bar (freetime)
 $  - Segno
 &  - Coda
Tempo markers -  = BPM(8/16=s8/s16), where s8 = swing 8ths, s16 = swing 16ths

Tap to rate this tab
# A B C D E F G H I J K L M N O P Q R S T U V W X Y Z