Song name
# A B C D E F G H I J K L M N O P Q R S T U V W X Y Z

Nevermore - Tomorrow Turned Into Yesterday tab

I've noticed this intro tabbed horribly wrong everywhere I've looked,
so I did this.

E------------------------------------------------------------------|
B--------------------------------0---------------------------------|
G-----------0-----------------3-----3--------------------0---------|
D--------2-----2-----------2-----------2--------------0-----0------|
A-----2-----------2-----4--------------------------4-----------4---|
E--0-----------------0--------------------0--2--3----------------3-|


E-------------------0------|
B--------------3-------3---|
G-----------0----0---------|
D--------4-----------------|
A-----4--------------------|
E--5-----------------------|
Tap to rate this tab
 
# A B C D E F G H I J K L M N O P Q R S T U V W X Y Z