Guitaretab - guitar tabs
Song name
# A B C D E F G H I J K L M N O P Q R S T U V W X Y Z

Nevermore - The Heart Collector tab

Artist: Nevermore                   Tuning: Eb
 Album: Dead Heart In A Dead World
  Song: The Heart Collector

|------------------------------------------------------------------------------| 
|------------------------------------------------------------------------------| 
|------------------------------------------------------------------------------| 
|------------------------------------------------------------------------------| 
|-11---11-11----11-9--7----7--7-----7/9--7----7--7-----------6----6--6--6--6---| 
|-9----9--9--0--9--7--5----5--5--0--5/7--7----7--7--0--7--7--4----4--4--4--4---| 
|-9----9--9--0--9--7--5----5--5--0--5/7--5----5--5--0--4--5--4----4--4--4--4---| 

|------------------------------------------------------------------------------| 
|------------------------------------------------------------------------------| 
|------------------------------------------------------------------------------| 
|------------------------------------------------------------------------------| 
|-11---11-11----11-9--7----7--7-----7/9--7----7--7-----9--7--7---7---6---6--6--| 
|-9----9--9--0--9--7--5----5--5--0--5/7--7----7--7--0--7--5--4---4---4---4--4--| 
|-9----9--9--0--9--7--5----5--5--0--5/7--5----5--5--0--7--5--4---4---4---4--4--| 

Lead Intro
|------------------------------------------------------------------------------| 
|------------------------------------------------------------------------------| 
|---------------------7~-----------------6~------6---7---6--4h6------4~--------| 
|-\4~-----4---6---7-------------4--6--7---------------------------------------:|x2 
|------------------------------------------------------------------------------| 
|------------------------------------------------------------------------------| 
|------------------------------------------------------------------------------| 

Intro2 
|---------------------------0--------------------------------------------------| 
|-------------------------0----------------------------------------------------| 
|------------------------------------------------------------------------------| 
|-------7------7------------------------------------------------7~-----7-7-----| 
|-7-----7------5-------------------8----------------------------7~-----7-7-----| 
|-7-----5------5---0--2------------6------6--5h6p5p3~-----1--0--5~-----5-5-----| 
|-5----------------------------------------------------------------------------| 

Solo
|---------------------------------------------------| 
|--------15-17~----------15-17-17b19r17-15--17b19~--| 
|--14-16-----------14-16----------------------------| 
|---------------------------------------------------| 
|---------------------------------------------------| 
|---------------------------------------------------| 
|---------------------------------------------------| 

|--------------------------------------------------------------------| 
|--------15-17-17b19r17-15---17h18p17p15h17-17b18r17~---15--17--15~--| 
|--14-16-------------------------------------------------------------| 
|--------------------------------------------------------------------| 
|--------------------------------------------------------------------| 
|--------------------------------------------------------------------| 
|--------------------------------------------------------------------| 

|---------------------------------------------------| 
|--------15-15h17-15-14~------14b15~----------------| 
|--14-16--------------------------------------------| 
|---------------------------------------------------| 
|---------------------------------------------------| 
|---------------------------------------------------| 
|---------------------------------------------------| 





Verse, Played on a Acoustic
|---------1---------------1---------------0-------------------------| 
|-----3-----3---3-----3-----3---3-----1-----1---1-----1-------1-----| 
|---2---2-----2-----0---0-----0-----0---0-----0-----0---0---0---0---| 
|-0-----------------------------------------------------------------| 
|-----------------2---------------3---------------------------------| 
|-------------------------------------------------0-------3---------| 
|-------------------------------------------------------------------| 

|---------------------------------------------------------------------| 
|---------3-------------------3---------------3-----------2-3-2-------| 
|-----3-----3-------------3-----3---3-----2-----2---2-----------2---2-| 
|---3---3---------------0---0-----0-----2---2-----2-----2---------2---| 
|-1-----------1-0h1r0-----------------0---------------0---------------| 
|---------------------3-----------------------------------------------| 
|---------------------------------------------------------------------| 

Lead, Played over Verse, Dry Guitar
|------------------------------------------------------------------| 
|------------------------------------------------------------------| 
|--14--14----14--12--10--9--10h12~-12----12--10--9--7--9h10~-10----| 
|------------------------------------------------------------------| 
|------------------------------------------------------------------| 
|------------------------------------------------------------------| 
|------------------------------------------------------------------| 

|-----------------------------------------------| 
|-----------------------------------------------| 
|-10--9--9--7--7h9--6----6~----6--7--6----------| 
|---------------------------------------7-------| 
|------------------------------------------7----| 
|-----------------------------------------------| 
|-----------------------------------------------| 

Pre - Chorus
|-------------------------------------------------------------------| 
|-------------------------------------------------------------------| 
|---------2-------------------------------1---------------1---------| 
|-----3-----3---3-----3-------3-------2-----2---2-----2-----2---2---| 
|---3---3-----3-----3---3---3---3---2---2-----2-----2---2-----2-----| 
|-1---------------3-------1-------0---------------0-----------------| 
|-------------------------------------------------------------------| 

There is a high pitch guitar thing going on here, I didnít take time
to figure it out because you can pretty much just imporvise on high notes 

Chorus 
|-----------------------------------------------------------------------| 
|-----------------------------------------------------------------------| 
|-----------------------------------------------------------------------| 
|-7----7--7--7--7--5--3--3--3--3--3--5----------------------------------| 
|-7----7--7--7--7--5--3--3--3--3--3--5--3--3--3--3--3--3--7----7--7---7-| 
|-5----5--5--0--5--3--1--1--1--0--1--3--3--3--3--3--3--3--7----7--7---7-| 
|---------------------------------------1--1--1--1--0--1--5----5--5---5-| 

Lead , Palyed During Chorus
|------------------------------------------------------------------| 
|------------------------------------------------------------------| 
|------------------------------------------------------------------| 
|-----------------------------------------------------------------:|x2 
|-----------------8~------------7~---7---8---7--5h7------5~--------| 
|-\5~---5--7--8--------5--7--8-------------------------------------| 
|------------------------------------------------------------------| 

Play Verse , Then Prechorus, Then Chorus


Solo Rhythm  
|------------------------------------------------------------------------------| 
|------------------------------------------------------------------------------| 
|------------------------------------------------------------------------------| 
|------------------------------------------------------------------------------| 
|-11---11-11----11-9--7----7--7-----7/9--7----7--7-----------6----6--6--6--6---| 
|-9----9--9--0--9--7--5----5--5--0--5/7--7----7--7--0--7--7--4----4--4--4--4---| 
|-9----9--9--0--9--7--5----5--5--0--5/7--5----5--5--0--4--5--4----4--4--4--4---| 




|------------------------------------------------------------------------------| 
|------------------------------------------------------------------------------| 
|------------------------------------------------------------------------------| 
|------------------------------------------------------------------------------| 
|-11---11-11----11-9--7----7--7-----7/9--7----7--7-----9--7--7---7---6---6--6--| 
|-9----9--9--0--9--7--5----5--5--0--5/7--7----7--7--0--7--5--4---4---4---4--4--| 
|-9----9--9--0--9--7--5----5--5--0--5/7--5----5--5--0--7--5--4---4---4---4--4--| 

Solo Rhythm2
|---------------------------0--------------------------------------------------| 
|-------------------------0----------------------------------------------------| 
|------------------------------------------------------------------------------| 
|-------7------7------------------------------------------------7~-----7-7-----| 
|-7-----7------5-------------------8----------------------------7~-----7-7-----| 
|-7-----5------5---0--2------------6------6--5h6p5p3~-----1--0--5~-----5-5-----| 
|-5----------------------------------------------------------------------------| 
[ Tab from: http://www.guitaretab.com/n/nevermore/64761.html ]
Solo
|------------------------------------------| 
|-14~-----12~----12~-----13~---------------| 
|-13~-----11~----11~-----11~---------------| 
|------------------------------------------| 
|------------------------------------------| 
|------------------------------------------| 
|------------------------------------------| 
                                              
|-------12~-----12----12---------12----12----------------12----12-----------------| 
|---------------------------------------------------------------------------------| 
|-/13-------13-----13----13/14------14-----14-(16)-14--13-----13-----13h14p13-----| 
|---------------------------------------------------------------------------------| 
|---------------------------------------------------------------------------------| 
|---------------------------------------------------------------------------------| 
|---------------------------------------------------------------------------------| 

|---------------------------------------------------------------16-17-19-17-16-| 
|------------------------17----17--19b21~--\17--19--21--22--21-----------------| 
|-11b13~--11-9-11~---/16----16-------------------------------------------------| 
|------------------------------------------------------------------------------| 
|------------------------------------------------------------------------------| 
|------------------------------------------------------------------------------| 
|------------------------------------------------------------------------------| 

|--17p16----16----------------16h17h19-| 
|--------19----19p17p16h17h19----------| 
|--------------------------------------| 
|--------------------------------------| 
|--------------------------------------| 
|--------------------------------------| 
|--------------------------------------| 

|-17h19h22p19p17p16h17h19p17p16h17h19p17p16----------------16-| 
|-------------------------------------------19-16-17----------| 
|----------------------------------------------------18~------| 
|-------------------------------------------------------------| 
|-------------------------------------------------------------| 
|-------------------------------------------------------------| 
|-------------------------------------------------------------| 

Harmony , Use Sweep Picking
|-21-16----------16-21-16----------16-21-16----16---| 
|-------17----17----------17----17----------17------| 
|----------18----------------18---------------------| 
|---------------------------------------------------| 
|---------------------------------------------------| 
|---------------------------------------------------| 
|---------------------------------------------------| 
|                                                   | 
|-16-12----------12-16-12----------12-16-12----12---| 
|-------14----14----------14----14----------14------| 
|----------13----------------13---------------------| 
|---------------------------------------------------| 
|---------------------------------------------------| 
|---------------------------------------------------| 
|---------------------------------------------------| 





|-19-16-------19-16-19-16----------16-19/21\19-16---| 
|-------17----------------17----17------------------| 
|----------16----------------16---------------------| 
|---------------------------------------------------| 
|---------------------------------------------------| 
|---------------------------------------------------| 
|---------------------------------------------------| 
|                                                   | 
|-14-12-------14-12-14-12----------12-14/16\14-12---| 
|-------12----------------12----12------------------| 
|----------13----------------13---------------------| 
|---------------------------------------------------| 
|---------------------------------------------------| 
|---------------------------------------------------| 
|---------------------------------------------------| 


|-19-16----------16-19-16----------16-19-16----16---| 
|-------17----17----------17----17----------17------| 
|----------16----------------16---------------------| 
|---------------------------------------------------| 
|---------------------------------------------------| 
|---------------------------------------------------| 
|---------------------------------------------------| 
|                                                   | 
|-14-12----------12-14-12----------12-14-12----12---| 
|-------12----12----------12----12----------12------| 
|----------13----------------13---------------------| 
|---------------------------------------------------| 
|---------------------------------------------------| 
|---------------------------------------------------| 
|---------------------------------------------------| 


|-20-16----16-------------------|
|-------16----16----16----------|
|----------------17----17-------|
|-------------------------18~---|
|-------------------------------|
|-------------------------------|
|-------------------------------|
                                                    
|-16-11----11-------------------|
|-------13----13----13----------|
|----------------13----13-------|
|-------------------------13~---|
|-------------------------------|
|-------------------------------|
|-------------------------------|

Lead, with a lower octave
|---------------------------------------------------| 
|--------15-17~----------15-17-17b19r17-15--17b19~--| 
|--14-16----------14-16----------------------------| 
|---------------------------------------------------| 
|---------------------------------------------------| 
|---------------------------------------------------| 
|---------------------------------------------------| 

|--------------------------------------------------------------------| 
|--------15-17-17b19r17-15---17h18p17p15h17-17b18r17~---15--17--15~--| 
|--14-16-------------------------------------------------------------| 
|--------------------------------------------------------------------| 
|--------------------------------------------------------------------| 
|--------------------------------------------------------------------| 
|--------------------------------------------------------------------| 

|------------------------------------------------------------------------| 
|--------15-15h17-15-14~-14-15-17-15-14-15-14----------------------------| 
|--14-16--------------------------------------14-------------------------| 
|------------------------------------------------11-12-14-12-11-12-11----| 
|---------------------------------------------------------------------12-| 
|------------------------------------------------------------------------| 
|------------------------------------------------------------------------| 






|----------|
|----------|
|----------|
|----------|
|-12~------|
|----------|

Play The Verse ( Acoustic ) With the lead
Play intro with lead
 
  Dry Guitar                        1st               2nd
|----------------------------------|-------0---------|-------0-----0---| 
|--------0--------0--------------0-|----4-----4------|----4-----4------| 
|-----4--------4--------4-----4----|-------------4---|-----------------| 
|--6--------6--------6-----5-------|-5--------------:|-5---------------|x4 
|----------------------------------|-----------------|-----------------| 
|----------------------------------|-----------------|-----------------| 
|----------------------------------|-----------------|-----------------| 

|---------------------------------------------------| 
|--------0--------0--------------0--------0---------| 
|-----4--------4--------4-----4--------4--------4---| 
|--6--------6--------6-----5--------5--------5------|Repeat 8x 
|---------------------------------------------------| 
|---------------------------------------------------| 
|---------------------------------------------------| 

Ending - Rhythm 
|-----------------------------------------------------| 
|-----------------------------------------------------| 
|-----------------------------------------------------| 
|-----------------------------------------------------| 
|--6~----------------6-6-6-6-6-6-6-6-6-6-6-6-6-6-6-6--| 
|--4~----------------4-4-4-4-4-4-4-4-4-4-4-4-4-4-4-4--| 
|-----------------------------------------------------| 
 Palm Muted          * * * * * * * * * * * * * * 

|------------------------------------| 
|------------------------------------| 
|------------------------------------| 
|------------------------------------| 
|-6----6-----------------------------| 
|-4----4-------7----7---7--6--5--4---| 
|-----------0--5----5---5--4--3--2---| 


|------------------------------------| 
|------------------------------------| 
|------------------------------------| 
|------------------------------------| 
|-6----6-----------------------------| 
|-4----4-------7--7--7-----6--5--4---| 
|-----------0--5--5--5-----4--3--2---| 
 Palm Muted    *  *  *

|------------------| 
|------------------| 
|------------------| 
|------------------| 
|--6\--------------| 
|--4\--------------| 
|------------------| 
Related for The Heart Collector tab