Song name
# A B C D E F G H I J K L M N O P Q R S T U V W X Y Z

Nevermore - Seed Awakening tab

Nevermore - Seed Awakening


Riff A 2x [after second time, hold the 6]
C#---------------------------------------------------------------------------|
G#---------------------------------------------------------------------------|
E----------------------------------------------------------------------------|
B--------------------------------------------9-9-----8-8---------------------|
F#-------------------7-7---------7-7-----------------------------9-9---------|
C#--x-x-x-x-x-x-x-x------0-0-0-0-----0-0-0-0-----0-0-----0-0-0-0-----0-0-0-0-|
   [first time only]     * * * *     * * * *     * *     * * * *     * * * *

C#-----------------------------------------------------------------------------|
G#-----------------------------------------------------------------------------|
E------------------------------------------------------------------------------|
B------------------------------------------------------------------------------|
F#-10-10-9-9-10-10---------7-7-------------------------------------------------|
C#-----------------0-0-0-0-----0-0-0-0-7-7-0-0-0-0-6-6-0-0-0-0-9-9-0-0-0-0-6-6-|
                   * * * *     * * * *     * * * *     * * * *     * * * *

Riff B: Insanely fast
C#----------------------------------------------------------------|
G#----------------------------------------------------------------|
E-*--------------------------------------------------------------*|
B-*--------------------------------------------------------------*|
F#------------------------------------------3-----5-3-2---2-------|
C#--000-000-000-000-000-000-000-000-0-3-1-0---3-0-------3---3-1---|
    *** *** *** *** *** *** *** ***

Riff C
C#--------------------------------------------------------------------------|
G#--------------------------------------------------------------------------|
E---10-10-10-10-10-10-10-10-10-10-10-10-10-10-10-10-------------------------|
B---10-10-10-10-10-10-10-10-10-10-10-10-10-10-10-10-------------------8-7-3-|
F#--8--8--8--8--8--8--8--8--8--8--8--8--8--8--8--8--8888-7777-5555----8-7-3-|
C#-----------------------------------------------------------------6--6-5-1-|
                                                    **** **** ****
Riff B

Riff D
C#-----------------------------------|
G#-----------------------------------|
E-*---------------------------------*|
B-*-------3-------3-------3-------3-*|
F#--------3-------3-------3-------3--|
C#--0-0-0-1-0-0-0-1-0-0-0-1-0-0-0-1--|
    * * *   * * *   * * *   * * *

Riff C

Riff B

Riff E Clean
C#----------------------------------------------------------------|
G#----------------------------------------------------------------|
E-----------------------------------------------------------------|
B-----------------------------------------------------------------|
F#----2-2---2-2---2---2-2---2-2---2-------------------------------|
C#--4-----4-----4---4-----4-----4---4-4-4-5-5-7-7-8-8-10-10-10-10-|

C#----------------------------------------------------------------|
G#----------------------------------------------------------------|
E-----------------------------------------------------------------|
B-----------------------------------7--9--10--12------------------|
F#----2-2---2-2---2---2-2---2-2-----7--9--10--12------------------|
C#--4-----4-----4---4-----4-----X-X-5--7--8---10--<7>-<7>-<7>-<7>-|

Riff F
C#-------------------------------------------------------------------------|
G#-------------------------------------------------------------------------|
E-*-9/---------9------------------------9/---------9----------------------*|
B-*-9/---------9----9-9-----11-11-11-11-9/---------9-----9--8-8--11-X--11-*|
F#--7/---2--2--7----6-6-----9--9--9--9--7/---2--2--7-----9--8-8--11-X--11--|
C#-------0--0-----0-----0-0------------------0--0-----0--7--6-6--9--X--9---|
         *  *                                *  *

Riff E

Riff F

Riff C

Riff B with solo then vocals.

Riff C

Riff F

Riff D until the end.

Tab Legend
* - Palm Mute
/ - Slide
X - No note
<7> - Harmonics


I dont know the rest. Send it do me if you do Thisgodlessendvr@aol.com
Tap to rate this tab
# A B C D E F G H I J K L M N O P Q R S T U V W X Y Z