Song name
# A B C D E F G H I J K L M N O P Q R S T U V W X Y Z

Nevershoutnever - Liar Liar Acoustic tab

----------------------------------------------------------------------------
			 Liar Liar Acoustic - Nevershoutnever
----------------------------------------------------------------------------
Tabbed by:ErikGampick                username:erikgallegos
Email:earikg@hotmai.com

okay so this is my first tab.
this is altered slightly but then again it's an acoustic version
so it'll be just a bit diffferent. there are two different guitar parts.
first is mainly rythm chords and second is lead. I'm pretty sure it sounds
nice. i'll try my best to make everything sound at least a bit like the
actual thing but this is pretty darn close.

if you wanna hear me play it and hear the rythm and everything
go check out my cover at 

Myspace.com/erikgampick 

it's called Liar Liar Acoustic (cover)
if you like it add my band. 
also try adding 

Myspace.com/thepicturemeperfect

...my other band(;   we both work in these style of music
but anywho, here's the tab

Tuning: Standard

-----Verse: verse 1

Guitar 1:      
e|--2---2-2---2-2-2------2---2-2---2-2-2-------0---0-0---0-0-0----------|
B|--2---2-2---2-2-2------3---3-3---3-3-3-------3---3-3---3-3-3----------|
G|--2---2-2---2-2-2------2---2-2---2-2-2-------1---1-1---1-1-1----------|
D|--4---4-4---4-4-4--x2--0---0-0---0-0-0--x2---0---0-0---0-0-0--x2------|
A|--4---4-4---4-4-4------x---x-x---x-x-x-------2---2-2---2-2-2----------|
E|--2---2-2---2-2-2------x---x-x---x-x-x-------x---x-x---x-x-x----------|
 |          F#m        |          D         |        E7                 |
e|--0---0-0---0-0-0---------------------------------------0~~------|
B|--0---0-0---0-0-0---------------------------------------0~~------|
G|--1---1-1---1-1-1------then repeat this all again-------1~~------|
D|--2---2-2---2-2-2--x2--but when you get to this last----2~~------|
A|--2---2-2---2-2-2------Chord E, you just hit it once----2~~------|
E|--x---x-x---x-x-x------and hold like so.....------------x--------|
 |          E          |

-----Guitar Melody Thing 1:
 
Guitar 1:  
e|--2---2-2---2-2-2------2---2-2---2-2-2-------0---0-0---0-0-0--------0~~--|
B|--2---2-2---2-2-2------3---3-3---3-3-3-------3---3-3---3-3-3--------0~~--|
G|--2---2-2---2-2-2------2---2-2---2-2-2-------1---1-1---1-1-1--------1~~--|
D|--4---4-4---4-4-4--x2--0---0-0---0-0-0--x2---0---0-0---0-0-0--x2----2~~--|
A|--4---4-4---4-4-4------x---x-x---x-x-x-------2---2-2---2-2-2--------2~~--|
E|--2---2-2---2-2-2------x---x-x---x-x-x-------x---x-x---x-x-x--------x----|
 |         F#m       |          D          |       E7           |     E    |

Guitar 2:
e|-------12---9~----------9--7-------------\4~~~------|
B|--10-10---10----10-10-10-10----x3--------\5~~~------|
G|--------------------------------then ---------------|
D|----------------------------------slide-------------|
A|-----------------------------------down-------------|
E|--------------------------------------to------------|

-----Verse: Verse 2

Guitar 1
e|--2---2-2---2-2-2------2---2-2---2-2-2-------0---0-0---0-0-0----------| \
B|--2---2-2---2-2-2------3---3-3---3-3-3-------3---3-3---3-3-3----------| |
G|--2---2-2---2-2-2------2---2-2---2-2-2-------1---1-1---1-1-1----------| |
D|--4---4-4---4-4-4--x2--0---0-0---0-0-0--x2---0---0-0---0-0-0--x2------| |
A|--4---4-4---4-4-4------x---x-x---x-x-x-------2---2-2---2-2-2----------| |
E|--2---2-2---2-2-2------x---x-x---x-x-x-------x---x-x---x-x-x----------| |
 |          F#m      |           D         |         E7                 | |
e|--0---0-0---0-0-0------|                                       _________/
B|--0---0-0---0-0-0------|                                      /
G|--1---1-1---1-1-1------|                                      |
D|--2---2-2---2-2-2--x2--|                                      |
A|--2---2-2---2-2-2------|                                      |
E|--x---x-x---x-x-x------|                                      |     
 |         E             |                                      |
                                                                | x2
Guitar 2           let em ring!...alot(:                        |
e|------------------------------------------------------------| |
B|------2~~~~~~~---3~~~~~~~---3~~~~~~~~----0~~~~~~~~----------| |
G|-----2~~~~2~~~--2~~~~2~~~--4~~~~~4~~~---1~~~~1~~~~----------| |
D|----4~~~~~~~~~-0~~~~~~~~~-4~~~~~~~~~~--2~~~~~~~~~~----------| |
A|---4~~~~~~~~~~0~~~~~~~~~~2~~~~~~~~~~~-2~~~~~~~~~~~----------| |
E|------------------------------------------------------------| /

-----Chorus: Chorus 1

Guitars 1 & 2
e|---2---2-2---2-2-2---0---0-0---0-0-0---2---2-2---2-2-2---0---0-0--0-0-0|
B|---3---3-3---3-3-3---0---0-0---0-0-0---2---2-2---2-2-2---3---3-3--3-3-3|
G|---2---2-2---2-2-2---1---1-1---1-1-1---2---2-2---2-2-2---1---1-1--1-1-1|
D|---0---0-0---0-0-0---2---2-2---2-2-2---4---4-4---4-4-4---0---0-0--0-0-0|x3
A|---x---x-x---x-x-x---2---2-2---2-2-2---4---4-4---4-4-4---2---2-2--2-2-2|
E|---x---x-x---x-x-x---x---x-x---x-x-x---2---2-2---2-2-2---x---x-x--x-x-x|
           D         |      E          |        F#m      |     E7
then...
e|---2---2-2---2-2-2---0---0-0---0-0-0---2~~~------------|
B|---3---3-3---3-3-3---0---0-0---0-0-0---2~~~------------|
G|---2---2-2---2-2-2---1---1-1---1-1-1---2~~~------------|
D|---0---0-0---0-0-0---2---2-2---2-2-2---4~~~------------|
A|---x---x-x---x-x-x---2---2-2---2-2-2---4~~~------------|
E|---x---x-x---x-x-x---x---x-x---x-x-x---2~~~------------|
 |         D         |      E          |  F#m            |

-----Guitar Melody Thing 2:
 
Guitar 1:  
e|--2---2-2---2-2-2------2---2-2---2-2-2-------0---0-0---0-0-0--------0~~--|
B|--2---2-2---2-2-2------3---3-3---3-3-3-------3---3-3---3-3-3--------0~~--|
G|--2---2-2---2-2-2------2---2-2---2-2-2-------1---1-1---1-1-1--------1~~--|
D|--4---4-4---4-4-4--x2--0---0-0---0-0-0--x2---0---0-0---0-0-0--x2----2~~--|
A|--4---4-4---4-4-4------x---x-x---x-x-x-------2---2-2---2-2-2--------2~~--|
E|--2---2-2---2-2-2------x---x-x---x-x-x-------x---x-x---x-x-x--------x----|
 |         F#m       |          D          |       E7           |     E    |

Guitar 2:
e|-------12---9~----------9--7-------------\4~~~------|
B|--10-10---10----10-10-10-10----x3--------\5~~~------|
G|--------------------------------then ---------------|
D|----------------------------------slide-------------|
A|-----------------------------------down-------------|
E|--------------------------------------to------------|

-----Verse:Verse 3

Guitar 1
e|--2---2-2---2-2-2------2---2-2---2-2-2-------0---0-0---0-0-0----------| \
B|--2---2-2---2-2-2------3---3-3---3-3-3-------3---3-3---3-3-3----------| |
G|--2---2-2---2-2-2------2---2-2---2-2-2-------1---1-1---1-1-1----------| |
D|--4---4-4---4-4-4--x2--0---0-0---0-0-0--x2---0---0-0---0-0-0--x2------| |
A|--4---4-4---4-4-4------x---x-x---x-x-x-------2---2-2---2-2-2----------| |
E|--2---2-2---2-2-2------x---x-x---x-x-x-------x---x-x---x-x-x----------| |
 |          F#m      |           D         |         E7                 | |
e|--0---0-0---0-0-0------|                                        ________/
B|--0---0-0---0-0-0------|                                       /
G|--1---1-1---1-1-1------|                                       |
D|--2---2-2---2-2-2--x2--|                                       |
A|--2---2-2---2-2-2------|                                       |
E|--x---x-x---x-x-x------|                                       |  x2
 |         E             |                                       |
                                                                 |
Guitar 2                                                         |
e|------------------------------------------------------------|  |
B|------2~~~~~~~---3~~~~~~~---3~~~~~~~~----0~~~~~~~~----------|  |
G|-----2~~~~2~~~--2~~~~2~~~--4~~~~~4~~~---1~~~~1~~~~----------|  |
D|----4~~~~~~~~~-0~~~~~~~~~-4~~~~~~~~~~--2~~~~~~~~~~----------|  |
A|---4~~~~~~~~~~0~~~~~~~~~~2~~~~~~~~~~~-2~~~~~~~~~~~----------|  |
E|------------------------------------------------------------|  /


-----Chorus: Chorus 2

Guitars 1 & 2
e|---2---2-2---2-2-2---0---0-0---0-0-0---2---2-2---2-2-2---0---0-0--0-0-0|
B|---3---3-3---3-3-3---0---0-0---0-0-0---2---2-2---2-2-2---3---3-3--3-3-3|
G|---2---2-2---2-2-2---1---1-1---1-1-1---2---2-2---2-2-2---1---1-1--1-1-1|
D|---0---0-0---0-0-0---2---2-2---2-2-2---4---4-4---4-4-4---0---0-0--0-0-0|x3
A|---x---x-x---x-x-x---2---2-2---2-2-2---4---4-4---4-4-4---2---2-2--2-2-2|
E|---x---x-x---x-x-x---x---x-x---x-x-x---2---2-2---2-2-2---x---x-x--x-x-x|
 |         D         |      E          |        F#m      |     E7        |
then...
e|---2---2-2---2-2-2---0---0-0---0-0-0---2~~~------------|
B|---3---3-3---3-3-3---0---0-0---0-0-0---2~~~------------|
G|---2---2-2---2-2-2---1---1-1---1-1-1---2~~~------------|
D|---0---0-0---0-0-0---2---2-2---2-2-2---4~~~------------|
A|---x---x-x---x-x-x---2---2-2---2-2-2---4~~~------------|
E|---x---x-x---x-x-x---x---x-x---x-x-x---2~~~------------|
 |         D         |      E          |        F#m      |

-----SOLO

Guitar 1
e|--2---2-2---2-2-2------2---2-2---2-2-2-------0---0-0---0-0-0----------|
B|--2---2-2---2-2-2------3---3-3---3-3-3-------3---3-3---3-3-3----------|
G|--2---2-2---2-2-2------2---2-2---2-2-2-------1---1-1---1-1-1----------|
D|--4---4-4---4-4-4--x2--0---0-0---0-0-0--x2---0---0-0---0-0-0--x2------|
A|--4---4-4---4-4-4------x---x-x---x-x-x-------2---2-2---2-2-2----------|
E|--2---2-2---2-2-2------x---x-x---x-x-x-------x---x-x---x-x-x----------|
 |          F#m        |          D         |        E7                 |
e|--0---0-0---0-0-0---------------------------------------0~~------|
B|--0---0-0---0-0-0---------------------------------------0~~------|
G|--1---1-1---1-1-1------then repeat this all again-------1~~------|
D|--2---2-2---2-2-2--x2--but when you get to this last----2~~------|
A|--2---2-2---2-2-2------Chord E, you just hit it once----2~~------|
E|--x---x-x---x-x-x------and hold like so.....------------x--------|
 |          E          |                              |   E        |

Guitar 2: Lead
e|-------------------------------------------------------------------------|
B|----5/7~~7~~7~~7~--------------------------------------------------------|
G|-------------------------------------------------------------------------|
D|--------------------2--4/6~~4-2-4~~2-----2--4/6~~4-2-4~~2-----2--1/2~----|
A|-----------------2h4------------------2h4------------------2h4-----------|
E|-------------------------------------------------------------------------|

e|-------------------------------------------------------------------------|
B|---------------------------------5/7~~7~~7~~7~---------------------------|
G|----------------------------------------------------3/5~~3-2-3~~2--------|
D|----2-2-2-4-2-1~~1-1-1-1-1-1---------------------2--4/6~~4-2-4~~2--------|
A|----------------------------------------------2h4------------------------|
E|-------------------------------------------------------------------------|

e|-------------------------------------------------------------------------|
B|-------------------------------------------------------------------------|
G|---------3/5~~3-2-3~~2---2-2-2-0-0~~~~~----------------------------------|
D|------2--4/6~~4-2-4~~2---2-2-2-1-1~~~~~----------------------------------|
A|---2h4-------------------------------------------------------------------|
E|-------------------------------------------------------------------------|

------Chorus: Ending Chorus

Guitars 1 & 2
e|---2---2-2---2-2-2---0---0-0---0-0-0---2---2-2---2-2-2---0---0-0--0-0-0|
B|---3---3-3---3-3-3---0---0-0---0-0-0---2---2-2---2-2-2---3---3-3--3-3-3|
G|---2---2-2---2-2-2---1---1-1---1-1-1---2---2-2---2-2-2---1---1-1--1-1-1|
D|---0---0-0---0-0-0---2---2-2---2-2-2---4---4-4---4-4-4---0---0-0--0-0-0|
A|---x---x-x---x-x-x---2---2-2---2-2-2---4---4-4---4-4-4---2---2-2--2-2-2|
E|---x---x-x---x-x-x---x---x-x---x-x-x---2---2-2---2-2-2---x---x-x--x-x-x|
 |         D         |      E          |        F#m      |     E7        |
                                                               
e|---2---2-2---2-2-2---0---0-0---0-0-0---2-2-2-2-2-2-2-2-2-2-2-2-2-------|
B|---3---3-3---3-3-3---0---0-0---0-0-0---2-2-2-2-2-2-2-2-2-2-2-2-2-------|
G|---2---2-2---2-2-2---1---1-1---1-1-1---2-2-2-2-2-2-2-2-2-2-2-2-2-------|
D|---0---0-0---0-0-0---2---2-2---2-2-2---4-4-4-4-4-4-4-4-4-4-4-4-4-------|
A|---x---x-x---x-x-x---2---2-2---2-2-2---4-4-4-4-4-4-4-4-4-4-4-4-4-------|
E|---x---x-x---x-x-x---x---x-x---x-x-x---2-2-2-2-2-2-2-2-2-2-2-2-2-------|
 |         D         |      E          |        F#m     -->accent^

e|---2---2-2---2-2-2---0---0-0---0-0-0---2---2-2---2-2-2---0---0-0--0-0-0|
B|---3---3-3---3-3-3---0---0-0---0-0-0---2---2-2---2-2-2---3---3-3--3-3-3|
G|---2---2-2---2-2-2---1---1-1---1-1-1---2---2-2---2-2-2---1---1-1--1-1-1|
D|---0---0-0---0-0-0---2---2-2---2-2-2---4---4-4---4-4-4---0---0-0--0-0-0|
A|---x---x-x---x-x-x---2---2-2---2-2-2---4---4-4---4-4-4---2---2-2--2-2-2|
E|---x---x-x---x-x-x---x---x-x---x-x-x---2---2-2---2-2-2---x---x-x--x-x-x|
 |         D         |      E          |        F#m      |     E7        |

e|---2---2-2---2-2-2---0---0-0---0-0-0---2~~~2~~~------------------------|
B|---3---3-3---3-3-3---0---0-0---0-0-0---2~~~2~~~---------and------------|
G|---2---2-2---2-2-2---1---1-1---1-1-1---2~~~2~~~--------that's----------|
D|---0---0-0---0-0-0---2---2-2---2-2-2---4~~~4~~~----------a-------------|
A|---x---x-x---x-x-x---2---2-2---2-2-2---4~~~4~~~---------wrap-----------|
E|---x---x-x---x-x-x---x---x-x---x-x-x---2~~~2~~~------------------------|
 |         D         |      E          |        F#m                      |


so there it is..
i started at like 7 am and now it's 8:49 am...
i put some work into it if you didn't noticed haha:)

well anyways. i'm pretty sure this tab should be the best of any
so far that've been up. if you like it give me feedback.
if it needs any corrections feel free to show me, leave a comment or
simply use my email or even add my msn with my email.
i also have my myspace too. i use both...if you like this work
check em out and adddddd.

myspace.com/erikgampick
myspace.com/thepicturemeperfect

well hope i help,
Enjoy!


-ErikGampick
Tap to rate this tab
# A B C D E F G H I J K L M N O P Q R S T U V W X Y Z