Guitaretab - guitar tabs
Song name
# A B C D E F G H I J K L M N O P Q R S T U V W X Y Z

Nevershoutnever - Heregoesnothin chords

Highlighted       Show chord diagrams
This is my first tab :D
so it might not be good,
but i did my best....

Here Goes Nothing by Nevershoutnever!

Intro
[Strummed Fast]
Listen to song to get rhythm...
--x-x-x-x-----x-----x-|
--x-x-x-x-----x-----x-|
--x-x-x-x-----x-----x-|
--x-x-x-x-----x-----x-|
--x-x-x-x-----x-----x-|
--x-x-x-x-----x-----x-|    [Continue...]


Verse 1&2
The strumming is a bit difficult,listen to the song to get it right.

F                       Am                                             G
If timings everything...I know you're anxious.. your mouth like you're 5
F                       Am                                             G
1-----------------------0----------------------------------------------3--|
1-----------------------1----------------------------------------------3--|
2-----------------------2----------------------------------------------0--|
3-----------------------2----------------------------------------------0--|
3-----------------------x----------------------------------------------2--|
1-----------------------x----------------------------------------------3--|
After playing 'G', strum 'Am' when he sings "...pretend."

[ Tab from: http://www.guitaretab.com/n/nevershoutnever/203905.html ]
Prechorus
[Strumming Pattern Changes]
Listen to song to get rhythm

      F                Am             G
I'll sit........back.......and I'll watch the show....
      F          Am                   G
------1----------0--------------------3---------|
------1----------1--------------------3---------|
------2---(x7)---2---(x7)-------------0---(x7)--|
------3----------2--------------------0---------|
------3----------x--------------------2---------|
------1----------x--------------------3---------|
at the end of 'G', play 'Am' again.


CHORUS
[Listen to song to get strumming correctly.]

 Am                   F                   C                   G
--0-------------------1-------------------0-------------------3--|
--1-------------------1-------------------1-------------------3--|
--2-------------------2-------------------0-------------------0--|
--2-------------------3-------------------2-------------------0--|
--x-------------------3-------------------3-------------------2--|
--x-------------------1-------------------0-------------------3--|


I hope this help anyone who wants to play this song
:]
Related for Heregoesnothin chords
Heregoesnothin chords by Nevershoutnever