Song name
# A B C D E F G H I J K L M N O P Q R S T U V W X Y Z

Nevershoutnever - I Love You 5 tab

Here are the chords fo shizzle!
D----> 000232--|
A----> 002220--|
Bm7---> 224232-|
E----->022100--|
C-----> 032010-|
F-----> 133211-|

----------------------------------------------------------------------

I love you one, a two, a three shoobeedoo. i love you

      A
----0---0----0----0-------------------|
----2---2----2----2-------------------|
--------------------------------------|
------2---------2---------------------|
--0--------0--------------------------|
--------------------------------------|

 four, that's more then I can afford, and i can

  D
---2-----2-----2-----2-----|
---3-----3-----3-----3-----|
-------2-----------2-------|
-0-----------0-------------|
---------------------------|
---------------------------|

 tell someday that I'm gonna say the

      A
----0---0----0----0-------------------|
----2---2----2----2-------------------|
--------------------------------------|
------2---------2---------------------|
--0--------0--------------------------|
--------------------------------------|

 truth

 D
---2-----2-----2-----2-----|
---3-----3-----3-----3-----|
-------2-----------2-------|
-0-----------0-------------|
---------------------------|
---------------------------|


I love you 5

---------------------------------------------|
---------------------------------------------|
-------------------------------2------5------|
-------2----5-5-4-2----------4---4-----------|
-----4---4----------4------5-------5---------|
---5-----------------------------------------|

---------------------------------------------------------------------

A, D, A, D (theres really no guitar on this verse...but ya know)

I've been walkin' around tryin' to figure out
why I've been feelin' all these feelings that I'm feeling now
and I've got more on my mind then I have on my plate.

----------------------------------------------------------------------

A
I love you one, a two, a three shoobeedoo. I love you
D
four, thats more then I can afford, and i can
A
tell someday that I'm gonna say the
D
truth.

---------------------------------------------------------------------

Bm7
I love five times more then any boy from before, because all they
A
really cared about was whether you put out. And I
D
truely believe, (truely believe),  that this
C
 love could be (that this love...)
Bm7
and I can count five times off the top off my head where I
A
sucked it in cause you were hangin with him, and i got
D
something to say, I love you
E
all the same

----------------------------------------------------------------

I love you one, a two, a three shoobeedoo. I love you
---------------------------|
---------------------------|
---------------------------|
------4----7-7-6-4---------|
----6---6-----------6------|
--7------------------------|
four, thats more then I can afford, and i can

-----------------------|
-----------------------|
-----4----7--7-9-------|
---6--6----6-----------|
-7-----7---------------|
-----------------------|

tell someday I'm gonna say the truth.

---------------------------------------|
---------------------------------------|
---------------------------7-----------|
-----4---7-7-6-4---------8---8---------|
---6---6----------6-----9-------9-10---|
-7-------------------------------------|

(yeaaah)

---------------------------------------------------------------

C
I love you one, a two, a three shoobeedoo. i love you
F
four, thats more then I can afford, and i can
C
tell someday I'm gonna say the
F
truth.

C, F, C, F
I love you 5 (ba ba bada) I love you 5 (ba ba bada) I love you 5

--------------------------------------------------------------------
P.S.  haha, sorry if it sucks, my second tab, just in case anyone would like to keep 
haha, ok bye
Tap to rate this tab
# A B C D E F G H I J K L M N O P Q R S T U V W X Y Z