Song name
# A B C D E F G H I J K L M N O P Q R S T U V W X Y Z

Nevershoutnever - Cant Stand It tab

Can't Stand It (solo)  Nevershoutnever!

Tab by: BlueBatInACave
Tuning: Standard

************************************
| /   slide up
| h   hammer-on
| p   pull-off
| ~   vibrato
| x   Mute note
| b   Bend
| br  Bend release
| *   Short note
************************************

e|-------------------------------------------------------------------------|
B|---/8-8---/8-8-8------------------------------------7--7b8--7h8----------|
G|---/9-7---/9-9-7----/9-9p7-----------------------4/7--7------------------|
D|---------------------------10-9-7-9-10p9-9-9-----------------------------|
A|-------------------------------------------------------------------------|
E|-------------------------------------------------------------------------|

e|-------10----------------------------------------------------------------|
B|-10b12----12br-10p8-7----------------------------------------------------|
G|--------------------------9*-7*------------------------------------------|
D|--------------------------------10*-9*-10p9--7h9p7-----------------------|
A|-------------------------------------------------------------------------|
E|-------------------------------------------------------------------------|
Tap to rate this tab
# A B C D E F G H I J K L M N O P Q R S T U V W X Y Z